ISO-10303-21;
HEADER;
FILE_DESCRIPTION (( 'STEP AP214' ),
    '1' );
FILE_NAME ('B575 Çàãëóøêà êðåïåæíîãî îòâåðñòèÿ ïîä MGR7 (çåëåíàÿ).STEP',
    '2026-01-28T08:50:52',
    ( '' ),
    ( '' ),
    'SwSTEP 2.0',
    'SolidWorks 2026',
    '' );
FILE_SCHEMA (( 'AUTOMOTIVE_DESIGN' ));
ENDSEC;

DATA;
#1 = ADVANCED_FACE ( 'NONE', ( #43 ), #14, .T. ) ;
#2 = FACE_BOUND ( 'NONE', #173, .T. ) ;
#3 = AXIS2_PLACEMENT_3D ( 'NONE', #267, #106, #203 ) ;
#4 = PRESENTATION_LAYER_ASSIGNMENT (  '', '', ( #113 ) ) ;
#5 = VECTOR ( 'NONE', #144, 1000.000000000000000 ) ;
#6 = DIRECTION ( 'NONE',  ( -0.000000000000000000, 0.000000000000000000, 1.000000000000000000 ) ) ;
#7 = DIRECTION ( 'NONE',  ( -0.000000000000000000, -0.000000000000000000, -1.000000000000000000 ) ) ;
#8 = DIRECTION ( 'NONE',  ( 1.000000000000000000, 0.000000000000000000, 0.000000000000000000 ) ) ;
#9 = CIRCLE ( 'NONE', #180, 1.000000000000000000 ) ;
#10 = CARTESIAN_POINT ( 'NONE',  ( 0.000000000000000000, 0.000000000000000000, 0.000000000000000000 ) ) ;
#11 = EDGE_CURVE ( 'NONE', #242, #259, #284, .T. ) ;
#12 = ORIENTED_EDGE ( 'NONE', *, *, #162, .F. ) ;
#13 = AXIS2_PLACEMENT_3D ( 'NONE', #102, #6, #77 ) ;
#14 = TOROIDAL_SURFACE ( 'NONE', #112, 2.050000000000000266, 0.1000000000000000056 ) ;
#15 = VERTEX_POINT ( 'NONE', #175 ) ;
#16 = DIRECTION ( 'NONE',  ( 1.000000000000000000, 0.000000000000000000, 0.000000000000000000 ) ) ;
#17 = EDGE_CURVE ( 'NONE', #291, #242, #235, .T. ) ;
#18 = DIRECTION ( 'NONE',  ( 0.000000000000000000, -0.000000000000000000, -1.000000000000000000 ) ) ;
#19 = AXIS2_PLACEMENT_3D ( 'NONE', #133, #86, #88 ) ;
#20 = CIRCLE ( 'NONE', #152, 0.1000000000000000472 ) ;
#21 = DIRECTION ( 'NONE',  ( -1.000000000000000000, 0.000000000000000000, 0.000000000000000000 ) ) ;
#22 = APPLICATION_CONTEXT ( 'automotive_design' ) ;
#23 = DIRECTION ( 'NONE',  ( -1.000000000000000000, 1.224646799147353454E-16, 0.000000000000000000 ) ) ;
#24 = DIRECTION ( 'NONE',  ( -0.000000000000000000, 0.000000000000000000, 1.000000000000000000 ) ) ;
#25 = EDGE_CURVE ( 'NONE', #242, #291, #116, .T. ) ;
#26 = ORIENTED_EDGE ( 'NONE', *, *, #42, .T. ) ;
#27 = CARTESIAN_POINT ( 'NONE',  ( -2.050000000000000266, 2.571758278209441464E-16, 1.500000000000000000 ) ) ;
#28 = ADVANCED_FACE ( 'NONE', ( #40 ), #91, .T. ) ;
#29 = CARTESIAN_POINT ( 'NONE',  ( -1.000000000000000000, 0.000000000000000000, 1.399999999999999911 ) ) ;
#30 = ORIENTED_EDGE ( 'NONE', *, *, #51, .T. ) ;
#31 =( LENGTH_UNIT ( ) NAMED_UNIT ( * ) SI_UNIT ( .MILLI., .METRE. ) );
#32 = VECTOR ( 'NONE', #164, 1000.000000000000000 ) ;
#33 = AXIS2_PLACEMENT_3D ( 'NONE', #74, #182, #306 ) ;
#34 = ORIENTED_EDGE ( 'NONE', *, *, #234, .T. ) ;
#35 = CIRCLE ( 'NONE', #197, 0.1000000000000000472 ) ;
#36 = DIRECTION ( 'NONE',  ( 1.000000000000000000, 0.000000000000000000, 0.000000000000000000 ) ) ;
#37 = EDGE_CURVE ( 'NONE', #261, #216, #277, .T. ) ;
#38 = ORIENTED_EDGE ( 'NONE', *, *, #178, .T. ) ;
#39 = SHAPE_DEFINITION_REPRESENTATION ( #76, #44 ) ;
#40 = FACE_OUTER_BOUND ( 'NONE', #118, .T. ) ;
#41 = ORIENTED_EDGE ( 'NONE', *, *, #178, .F. ) ;
#42 = EDGE_CURVE ( 'NONE', #259, #281, #139, .T. ) ;
#43 = FACE_OUTER_BOUND ( 'NONE', #125, .T. ) ;
#44 = ADVANCED_BREP_SHAPE_REPRESENTATION ( 'B575 \X2\041704300433043b04430448043a0430\X0\ \X2\043a04400435043f04350436043d043e0433043e\X0\ \X2\043e0442043204350440044104420438044f\X0\ \X2\043f043e0434\X0\ MGR7 (\X2\04370435043b0435043d0430044f\X0\)', ( #163, #233 ), #278 ) ;
#45 = AXIS2_PLACEMENT_3D ( 'NONE', #230, #302, #21 ) ;
#46 = PRODUCT_DEFINITION_FORMATION_WITH_SPECIFIED_SOURCE ( 'ANY', '', #194, .NOT_KNOWN. ) ;
#47 = DIRECTION ( 'NONE',  ( -0.000000000000000000, 0.000000000000000000, 1.000000000000000000 ) ) ;
#48 = CARTESIAN_POINT ( 'NONE',  ( 1.000000000000000000, 1.224646799147353207E-16, 1.199999999999999956 ) ) ;
#49 = CIRCLE ( 'NONE', #60, 1.000000000000000000 ) ;
#50 =( NAMED_UNIT ( * ) PLANE_ANGLE_UNIT ( ) SI_UNIT ( $, .RADIAN. ) );
#51 = EDGE_CURVE ( 'NONE', #109, #100, #49, .T. ) ;
#52 =( NAMED_UNIT ( * ) SI_UNIT ( $, .STERADIAN. ) SOLID_ANGLE_UNIT ( ) );
#53 = DIRECTION ( 'NONE',  ( -0.000000000000000000, 0.000000000000000000, 1.000000000000000000 ) ) ;
#54 = ORIENTED_EDGE ( 'NONE', *, *, #101, .T. ) ;
#55 = EDGE_CURVE ( 'NONE', #227, #15, #20, .T. ) ;
#56 = CARTESIAN_POINT ( 'NONE',  ( 0.000000000000000000, 0.000000000000000000, 1.500000000000000000 ) ) ;
#57 = EDGE_LOOP ( 'NONE', ( #80, #167, #193, #221 ) ) ;
#58 = LINE ( 'NONE', #75, #5 ) ;
#59 = ORIENTED_EDGE ( 'NONE', *, *, #65, .F. ) ;
#60 = AXIS2_PLACEMENT_3D ( 'NONE', #128, #205, #298 ) ;
#61 = CARTESIAN_POINT ( 'NONE',  ( 0.000000000000000000, 0.000000000000000000, 0.000000000000000000 ) ) ;
#62 = ORIENTED_EDGE ( 'NONE', *, *, #55, .F. ) ;
#63 = DIRECTION ( 'NONE',  ( 1.000000000000000000, 0.000000000000000000, 0.000000000000000000 ) ) ;
#64 = CIRCLE ( 'NONE', #19, 1.100000000000000089 ) ;
#65 = EDGE_CURVE ( 'NONE', #227, #196, #64, .T. ) ;
#66 = ORIENTED_EDGE ( 'NONE', *, *, #42, .F. ) ;
#67 = DIRECTION ( 'NONE',  ( -0.000000000000000000, 0.000000000000000000, 1.000000000000000000 ) ) ;
#68 = FILL_AREA_STYLE ('',( #159 ) ) ;
#69 = CARTESIAN_POINT ( 'NONE',  ( -2.050000000000000266, 2.510525938252074186E-16, 1.399999999999999911 ) ) ;
#70 = CARTESIAN_POINT ( 'NONE',  ( 0.000000000000000000, 0.000000000000000000, 1.399999999999999911 ) ) ;
#71 = AXIS2_PLACEMENT_3D ( 'NONE', #117, #290, #169 ) ;
#72 = AXIS2_PLACEMENT_3D ( 'NONE', #252, #47, #16 ) ;
#73 = AXIS2_PLACEMENT_3D ( 'NONE', #287, #53, #123 ) ;
#74 = CARTESIAN_POINT ( 'NONE',  ( 0.000000000000000000, 0.000000000000000000, 1.199999999999999956 ) ) ;
#75 = CARTESIAN_POINT ( 'NONE',  ( -1.000000000000000000, 0.000000000000000000, 1.500000000000000000 ) ) ;
#76 = PRODUCT_DEFINITION_SHAPE ( 'NONE', 'NONE',  #264 ) ;
#77 = DIRECTION ( 'NONE',  ( 1.000000000000000000, 0.000000000000000000, 0.000000000000000000 ) ) ;
#78 = FACE_OUTER_BOUND ( 'NONE', #57, .T. ) ;
#79 = ADVANCED_FACE ( 'NONE', ( #207 ), #211, .F. ) ;
#80 = ORIENTED_EDGE ( 'NONE', *, *, #258, .T. ) ;
#81 = DIRECTION ( 'NONE',  ( 0.000000000000000000, 0.000000000000000000, -1.000000000000000000 ) ) ;
#82 = EDGE_CURVE ( 'NONE', #291, #281, #217, .T. ) ;
#83 = DIRECTION ( 'NONE',  ( 0.000000000000000000, -1.000000000000000000, 0.000000000000000000 ) ) ;
#84 = ORIENTED_EDGE ( 'NONE', *, *, #37, .F. ) ;
#85 = ORIENTED_EDGE ( 'NONE', *, *, #65, .T. ) ;
#86 = DIRECTION ( 'NONE',  ( 0.000000000000000000, -0.000000000000000000, -1.000000000000000000 ) ) ;
#87 = DIRECTION ( 'NONE',  ( 1.000000000000000000, 0.000000000000000000, 0.000000000000000000 ) ) ;
#88 = DIRECTION ( 'NONE',  ( 1.000000000000000000, 0.000000000000000000, 0.000000000000000000 ) ) ;
#89 = ADVANCED_FACE ( 'NONE', ( #303 ), #110, .F. ) ;
#90 = CARTESIAN_POINT ( 'NONE',  ( 0.000000000000000000, 0.000000000000000000, 1.500000000000000000 ) ) ;
#91 = TOROIDAL_SURFACE ( 'NONE', #3, 1.100000000000000089, 0.1000000000000000056 ) ;
#92 = AXIS2_PLACEMENT_3D ( 'NONE', #56, #7, #142 ) ;
#93 = FACE_OUTER_BOUND ( 'NONE', #127, .T. ) ;
#94 = FACE_OUTER_BOUND ( 'NONE', #141, .T. ) ;
#95 = ORIENTED_EDGE ( 'NONE', *, *, #274, .T. ) ;
#96 = CARTESIAN_POINT ( 'NONE',  ( -1.100000000000000089, 1.347111479062088503E-16, 1.500000000000000000 ) ) ;
#97 = ORIENTED_EDGE ( 'NONE', *, *, #55, .T. ) ;
#98 = DIRECTION ( 'NONE',  ( -0.000000000000000000, -0.000000000000000000, -1.000000000000000000 ) ) ;
#99 = EDGE_LOOP ( 'NONE', ( #222, #199, #12, #62 ) ) ;
#100 = VERTEX_POINT ( 'NONE', #48 ) ;
#101 = EDGE_CURVE ( 'NONE', #100, #109, #160, .T. ) ;
#102 = CARTESIAN_POINT ( 'NONE',  ( 0.000000000000000000, 0.000000000000000000, 1.399999999999999911 ) ) ;
#103 = DIRECTION ( 'NONE',  ( -0.000000000000000000, 0.000000000000000000, 1.000000000000000000 ) ) ;
#104 = APPLICATION_PROTOCOL_DEFINITION ( 'draft international standard', 'automotive_design', 1998, #22 ) ;
#105 = DIRECTION ( 'NONE',  ( 0.000000000000000000, -0.000000000000000000, -1.000000000000000000 ) ) ;
#106 = DIRECTION ( 'NONE',  ( -0.000000000000000000, 0.000000000000000000, 1.000000000000000000 ) ) ;
#107 = ORIENTED_EDGE ( 'NONE', *, *, #234, .F. ) ;
#108 = AXIS2_PLACEMENT_3D ( 'NONE', #90, #301, #275 ) ;
#109 = VERTEX_POINT ( 'NONE', #231 ) ;
#110 = CYLINDRICAL_SURFACE ( 'NONE', #45, 1.000000000000000000 ) ;
#111 = DIRECTION ( 'NONE',  ( 1.000000000000000000, 0.000000000000000000, 0.000000000000000000 ) ) ;
#112 = AXIS2_PLACEMENT_3D ( 'NONE', #244, #67, #248 ) ;
#113 = STYLED_ITEM ( 'NONE', ( #135 ), #163 ) ;
#114 = FACE_OUTER_BOUND ( 'NONE', #292, .T. ) ;
#115 = CYLINDRICAL_SURFACE ( 'NONE', #108, 2.149999999999999911 ) ;
#116 = CIRCLE ( 'NONE', #146, 2.149999999999999911 ) ;
#117 = CARTESIAN_POINT ( 'NONE',  ( 0.000000000000000000, 0.000000000000000000, 1.399999999999999911 ) ) ;
#118 = EDGE_LOOP ( 'NONE', ( #239, #59, #97, #308 ) ) ;
#119 = DIRECTION ( 'NONE',  ( -1.000000000000000000, 1.224646799147353207E-16, 0.000000000000000000 ) ) ;
#120 = ORIENTED_EDGE ( 'NONE', *, *, #17, .F. ) ;
#121 = LINE ( 'NONE', #171, #276 ) ;
#122 = ORIENTED_EDGE ( 'NONE', *, *, #172, .F. ) ;
#123 = DIRECTION ( 'NONE',  ( 1.000000000000000000, 0.000000000000000000, 0.000000000000000000 ) ) ;
#124 = DIRECTION ( 'NONE',  ( 0.000000000000000000, -1.000000000000000000, 0.000000000000000000 ) ) ;
#125 = EDGE_LOOP ( 'NONE', ( #120, #151, #66, #170 ) ) ;
#126 = CIRCLE ( 'NONE', #223, 2.050000000000000266 ) ;
#127 = EDGE_LOOP ( 'NONE', ( #201, #263, #145, #283 ) ) ;
#128 = CARTESIAN_POINT ( 'NONE',  ( 0.000000000000000000, 0.000000000000000000, 1.199999999999999956 ) ) ;
#129 = EDGE_CURVE ( 'NONE', #196, #227, #226, .T. ) ;
#130 = AXIS2_PLACEMENT_3D ( 'NONE', #280, #238, #36 ) ;
#131 = CARTESIAN_POINT ( 'NONE',  ( 0.000000000000000000, 0.000000000000000000, 1.399999999999999911 ) ) ;
#132 = AXIS2_PLACEMENT_3D ( 'NONE', #206, #103, #63 ) ;
#133 = CARTESIAN_POINT ( 'NONE',  ( 0.000000000000000000, 0.000000000000000000, 1.500000000000000000 ) ) ;
#134 = ADVANCED_FACE ( 'NONE', ( #208 ), #115, .T. ) ;
#135 = PRESENTATION_STYLE_ASSIGNMENT (( #253 ) ) ;
#136 = AXIS2_PLACEMENT_3D ( 'NONE', #179, #232, #161 ) ;
#137 = PLANE ( 'NONE',  #136 ) ;
#138 = DIRECTION ( 'NONE',  ( -0.000000000000000000, -0.000000000000000000, -1.000000000000000000 ) ) ;
#139 = CIRCLE ( 'NONE', #132, 2.050000000000000266 ) ;
#140 = FACE_OUTER_BOUND ( 'NONE', #99, .T. ) ;
#141 = EDGE_LOOP ( 'NONE', ( #26, #288 ) ) ;
#142 = DIRECTION ( 'NONE',  ( -1.000000000000000000, 0.000000000000000000, 0.000000000000000000 ) ) ;
#143 = ADVANCED_FACE ( 'NONE', ( #114 ), #137, .T. ) ;
#144 = DIRECTION ( 'NONE',  ( -0.000000000000000000, -0.000000000000000000, -1.000000000000000000 ) ) ;
#145 = ORIENTED_EDGE ( 'NONE', *, *, #11, .T. ) ;
#146 = AXIS2_PLACEMENT_3D ( 'NONE', #131, #271, #246 ) ;
#147 = CARTESIAN_POINT ( 'NONE',  ( -1.100000000000000089, 1.347111479062088503E-16, 1.399999999999999911 ) ) ;
#148 = ORIENTED_EDGE ( 'NONE', *, *, #37, .T. ) ;
#149 = EDGE_CURVE ( 'NONE', #281, #259, #126, .T. ) ;
#150 = EDGE_LOOP ( 'NONE', ( #122, #154, #38, #34 ) ) ;
#151 = ORIENTED_EDGE ( 'NONE', *, *, #82, .T. ) ;
#152 = AXIS2_PLACEMENT_3D ( 'NONE', #177, #124, #81 ) ;
#153 = DIRECTION ( 'NONE',  ( -0.000000000000000000, 0.000000000000000000, 1.000000000000000000 ) ) ;
#154 = ORIENTED_EDGE ( 'NONE', *, *, #25, .T. ) ;
#155 = CIRCLE ( 'NONE', #71, 1.000000000000000000 ) ;
#156 = DIRECTION ( 'NONE',  ( -0.000000000000000000, 0.000000000000000000, 1.000000000000000000 ) ) ;
#157 = UNCERTAINTY_MEASURE_WITH_UNIT (LENGTH_MEASURE( 1.000000000000000082E-05 ), #255, 'distance_accuracy_value', 'NONE');
#158 = SURFACE_STYLE_FILL_AREA ( #68 ) ;
#159 = FILL_AREA_STYLE_COLOUR ( '', #247 ) ;
#160 = CIRCLE ( 'NONE', #33, 1.000000000000000000 ) ;
#161 = DIRECTION ( 'NONE',  ( 1.000000000000000000, 0.000000000000000000, 0.000000000000000000 ) ) ;
#162 = EDGE_CURVE ( 'NONE', #15, #250, #9, .T. ) ;
#163 = MANIFOLD_SOLID_BREP ( '\X2\0421043a044004430433043b0435043d04380435\X0\1', #251 ) ;
#164 = DIRECTION ( 'NONE',  ( -0.000000000000000000, -0.000000000000000000, -1.000000000000000000 ) ) ;
#165 = ORIENTED_EDGE ( 'NONE', *, *, #162, .T. ) ;
#166 = CARTESIAN_POINT ( 'NONE',  ( 2.149999999999999911, 2.632990618166809235E-16, 1.500000000000000000 ) ) ;
#167 = ORIENTED_EDGE ( 'NONE', *, *, #289, .T. ) ;
#168 = ADVANCED_FACE ( 'NONE', ( #93 ), #296, .T. ) ;
#169 = DIRECTION ( 'NONE',  ( 1.000000000000000000, 0.000000000000000000, 0.000000000000000000 ) ) ;
#170 = ORIENTED_EDGE ( 'NONE', *, *, #11, .F. ) ;
#171 = CARTESIAN_POINT ( 'NONE',  ( 1.000000000000000000, 1.224646799147353207E-16, 1.500000000000000000 ) ) ;
#172 = EDGE_CURVE ( 'NONE', #242, #261, #279, .T. ) ;
#173 = EDGE_LOOP ( 'NONE', ( #85, #268 ) ) ;
#174 = PRODUCT_CONTEXT ( 'NONE', #243, 'mechanical' ) ;
#175 = CARTESIAN_POINT ( 'NONE',  ( 1.000000000000000000, 1.224646799147353207E-16, 1.399999999999999911 ) ) ;
#176 = EDGE_CURVE ( 'NONE', #196, #250, #35, .T. ) ;
#177 = CARTESIAN_POINT ( 'NONE',  ( 1.100000000000000089, 0.000000000000000000, 1.399999999999999911 ) ) ;
#178 = EDGE_CURVE ( 'NONE', #291, #216, #260, .T. ) ;
#179 = CARTESIAN_POINT ( 'NONE',  ( 0.000000000000000000, 0.000000000000000000, 1.199999999999999956 ) ) ;
#180 = AXIS2_PLACEMENT_3D ( 'NONE', #70, #24, #181 ) ;
#181 = DIRECTION ( 'NONE',  ( 1.000000000000000000, 0.000000000000000000, 0.000000000000000000 ) ) ;
#182 = DIRECTION ( 'NONE',  ( -0.000000000000000000, 0.000000000000000000, 1.000000000000000000 ) ) ;
#183 =( NAMED_UNIT ( * ) SI_UNIT ( $, .STERADIAN. ) SOLID_ANGLE_UNIT ( ) );
#184 = AXIS2_PLACEMENT_3D ( 'NONE', #282, #98, #241 ) ;
#185 = CARTESIAN_POINT ( 'NONE',  ( 0.000000000000000000, 0.000000000000000000, 1.500000000000000000 ) ) ;
#186 = DIRECTION ( 'NONE',  ( -0.000000000000000000, -0.000000000000000000, -1.000000000000000000 ) ) ;
#187 = EDGE_LOOP ( 'NONE', ( #295, #165, #95, #269 ) ) ;
#188 = PRODUCT_DEFINITION_CONTEXT ( 'detailed design', #22, 'design' ) ;
#189 = CARTESIAN_POINT ( 'NONE',  ( 1.100000000000000089, 0.000000000000000000, 1.500000000000000000 ) ) ;
#190 = AXIS2_PLACEMENT_3D ( 'NONE', #209, #156, #257 ) ;
#191 = DIRECTION ( 'NONE',  ( 1.224646799147353207E-16, 1.000000000000000000, 0.000000000000000000 ) ) ;
#192 = EDGE_LOOP ( 'NONE', ( #107, #84 ) ) ;
#193 = ORIENTED_EDGE ( 'NONE', *, *, #51, .F. ) ;
#194 = PRODUCT ( 'B575 \X2\041704300433043b04430448043a0430\X0\ \X2\043a04400435043f04350436043d043e0433043e\X0\ \X2\043e0442043204350440044104420438044f\X0\ \X2\043f043e0434\X0\ MGR7 (\X2\04370435043b0435043d0430044f\X0\)', 'B575 \X2\041704300433043b04430448043a0430\X0\ \X2\043a04400435043f04350436043d043e0433043e\X0\ \X2\043e0442043204350440044104420438044f\X0\ \X2\043f043e0434\X0\ MGR7 (\X2\04370435043b0435043d0430044f\X0\)', '', ( #174 ) ) ;
#195 = CARTESIAN_POINT ( 'NONE',  ( 2.149999999999999911, 2.632990618166809235E-16, 0.000000000000000000 ) ) ;
#196 = VERTEX_POINT ( 'NONE', #96 ) ;
#197 = AXIS2_PLACEMENT_3D ( 'NONE', #147, #191, #119 ) ;
#198 = DIRECTION ( 'NONE',  ( 1.000000000000000000, 0.000000000000000000, 0.000000000000000000 ) ) ;
#199 = ORIENTED_EDGE ( 'NONE', *, *, #176, .T. ) ;
#200 = APPLICATION_PROTOCOL_DEFINITION ( 'draft international standard', 'automotive_design', 1998, #243 ) ;
#201 = ORIENTED_EDGE ( 'NONE', *, *, #82, .F. ) ;
#202 = ADVANCED_FACE ( 'NONE', ( #309 ), #307, .T. ) ;
#203 = DIRECTION ( 'NONE',  ( 1.000000000000000000, 0.000000000000000000, 0.000000000000000000 ) ) ;
#204 = CIRCLE ( 'NONE', #73, 2.149999999999999911 ) ;
#205 = DIRECTION ( 'NONE',  ( -0.000000000000000000, 0.000000000000000000, 1.000000000000000000 ) ) ;
#206 = CARTESIAN_POINT ( 'NONE',  ( 0.000000000000000000, 0.000000000000000000, 1.500000000000000000 ) ) ;
#207 = FACE_OUTER_BOUND ( 'NONE', #192, .T. ) ;
#208 = FACE_OUTER_BOUND ( 'NONE', #214, .T. ) ;
#209 = CARTESIAN_POINT ( 'NONE',  ( 0.000000000000000000, 0.000000000000000000, 0.000000000000000000 ) ) ;
#210 = ADVANCED_FACE ( 'NONE', ( #94, #2 ), #220, .T. ) ;
#211 = PLANE ( 'NONE',  #190 ) ;
#212 = CYLINDRICAL_SURFACE ( 'NONE', #92, 1.000000000000000000 ) ;
#213 = ADVANCED_FACE ( 'NONE', ( #140 ), #304, .T. ) ;
#214 = EDGE_LOOP ( 'NONE', ( #219, #297, #148, #41 ) ) ;
#215 = CARTESIAN_POINT ( 'NONE',  ( -2.149999999999999911, 0.000000000000000000, 1.500000000000000000 ) ) ;
#216 = VERTEX_POINT ( 'NONE', #236 ) ;
#217 = CIRCLE ( 'NONE', #254, 0.09999999999999982514 ) ;
#218 =( NAMED_UNIT ( * ) PLANE_ANGLE_UNIT ( ) SI_UNIT ( $, .RADIAN. ) );
#219 = ORIENTED_EDGE ( 'NONE', *, *, #17, .T. ) ;
#220 = PLANE ( 'NONE',  #130 ) ;
#221 = ORIENTED_EDGE ( 'NONE', *, *, #274, .F. ) ;
#222 = ORIENTED_EDGE ( 'NONE', *, *, #129, .F. ) ;
#223 = AXIS2_PLACEMENT_3D ( 'NONE', #185, #272, #87 ) ;
#224 = CARTESIAN_POINT ( 'NONE',  ( 2.050000000000000266, 0.000000000000000000, 1.399999999999999911 ) ) ;
#225 = CARTESIAN_POINT ( 'NONE',  ( 0.000000000000000000, 0.000000000000000000, 1.399999999999999911 ) ) ;
#226 = CIRCLE ( 'NONE', #266, 1.100000000000000089 ) ;
#227 = VERTEX_POINT ( 'NONE', #189 ) ;
#228 = VECTOR ( 'NONE', #138, 1000.000000000000000 ) ;
#229 = DIRECTION ( 'NONE',  ( 1.224646799147353207E-16, 1.000000000000000000, 0.000000000000000000 ) ) ;
#230 = CARTESIAN_POINT ( 'NONE',  ( 0.000000000000000000, 0.000000000000000000, 1.500000000000000000 ) ) ;
#231 = CARTESIAN_POINT ( 'NONE',  ( -1.000000000000000000, 0.000000000000000000, 1.199999999999999956 ) ) ;
#232 = DIRECTION ( 'NONE',  ( -0.000000000000000000, 0.000000000000000000, 1.000000000000000000 ) ) ;
#233 = AXIS2_PLACEMENT_3D ( 'NONE', #61, #245, #198 ) ;
#234 = EDGE_CURVE ( 'NONE', #216, #261, #204, .T. ) ;
#235 = CIRCLE ( 'NONE', #305, 2.149999999999999911 ) ;
#236 = CARTESIAN_POINT ( 'NONE',  ( -2.149999999999999911, 0.000000000000000000, 0.000000000000000000 ) ) ;
#237 = CARTESIAN_POINT ( 'NONE',  ( 2.149999999999999911, 2.632990618166809235E-16, 1.399999999999999911 ) ) ;
#238 = DIRECTION ( 'NONE',  ( -0.000000000000000000, 0.000000000000000000, 1.000000000000000000 ) ) ;
#239 = ORIENTED_EDGE ( 'NONE', *, *, #176, .F. ) ;
#240 = ADVANCED_FACE ( 'NONE', ( #78 ), #212, .F. ) ;
#241 = DIRECTION ( 'NONE',  ( -1.000000000000000000, 0.000000000000000000, 0.000000000000000000 ) ) ;
#242 = VERTEX_POINT ( 'NONE', #237 ) ;
#243 = APPLICATION_CONTEXT ( 'automotive_design' ) ;
#244 = CARTESIAN_POINT ( 'NONE',  ( 0.000000000000000000, 0.000000000000000000, 1.399999999999999911 ) ) ;
#245 = DIRECTION ( 'NONE',  ( 0.000000000000000000, 0.000000000000000000, 1.000000000000000000 ) ) ;
#246 = DIRECTION ( 'NONE',  ( 1.000000000000000000, 0.000000000000000000, 0.000000000000000000 ) ) ;
#247 = COLOUR_RGB ( '',0.7921568627450980005, 0.8196078431372548767, 0.9333333333333333481 ) ;
#248 = DIRECTION ( 'NONE',  ( 1.000000000000000000, 0.000000000000000000, 0.000000000000000000 ) ) ;
#249 = DIRECTION ( 'NONE',  ( 1.000000000000000000, 0.000000000000000000, 0.000000000000000000 ) ) ;
#250 = VERTEX_POINT ( 'NONE', #29 ) ;
#251 = CLOSED_SHELL ( 'NONE', ( #213, #1, #134, #240, #89, #202, #210, #79, #143, #168, #28 ) ) ;
#252 = CARTESIAN_POINT ( 'NONE',  ( 0.000000000000000000, 0.000000000000000000, 1.399999999999999911 ) ) ;
#253 = SURFACE_STYLE_USAGE ( .BOTH. , #299 ) ;
#254 = AXIS2_PLACEMENT_3D ( 'NONE', #69, #229, #23 ) ;
#255 =( LENGTH_UNIT ( ) NAMED_UNIT ( * ) SI_UNIT ( .MILLI., .METRE. ) );
#256 =( GEOMETRIC_REPRESENTATION_CONTEXT ( 3 ) GLOBAL_UNCERTAINTY_ASSIGNED_CONTEXT ( ( #157 ) ) GLOBAL_UNIT_ASSIGNED_CONTEXT ( ( #255, #50, #183 ) ) REPRESENTATION_CONTEXT ( 'NONE', 'WORKASPACE' ) );
#257 = DIRECTION ( 'NONE',  ( 1.000000000000000000, 0.000000000000000000, 0.000000000000000000 ) ) ;
#258 = EDGE_CURVE ( 'NONE', #250, #15, #155, .T. ) ;
#259 = VERTEX_POINT ( 'NONE', #262 ) ;
#260 = LINE ( 'NONE', #215, #32 ) ;
#261 = VERTEX_POINT ( 'NONE', #195 ) ;
#262 = CARTESIAN_POINT ( 'NONE',  ( 2.050000000000000266, 0.000000000000000000, 1.500000000000000000 ) ) ;
#263 = ORIENTED_EDGE ( 'NONE', *, *, #25, .F. ) ;
#264 = PRODUCT_DEFINITION ( 'UNKNOWN', '', #46, #188 ) ;
#265 = CARTESIAN_POINT ( 'NONE',  ( -2.149999999999999911, 0.000000000000000000, 1.399999999999999911 ) ) ;
#266 = AXIS2_PLACEMENT_3D ( 'NONE', #273, #18, #111 ) ;
#267 = CARTESIAN_POINT ( 'NONE',  ( 0.000000000000000000, 0.000000000000000000, 1.399999999999999911 ) ) ;
#268 = ORIENTED_EDGE ( 'NONE', *, *, #129, .T. ) ;
#269 = ORIENTED_EDGE ( 'NONE', *, *, #101, .F. ) ;
#270 = PRODUCT_RELATED_PRODUCT_CATEGORY ( 'part', '', ( #194 ) ) ;
#271 = DIRECTION ( 'NONE',  ( 0.000000000000000000, -0.000000000000000000, -1.000000000000000000 ) ) ;
#272 = DIRECTION ( 'NONE',  ( -0.000000000000000000, 0.000000000000000000, 1.000000000000000000 ) ) ;
#273 = CARTESIAN_POINT ( 'NONE',  ( 0.000000000000000000, 0.000000000000000000, 1.500000000000000000 ) ) ;
#274 = EDGE_CURVE ( 'NONE', #250, #109, #58, .T. ) ;
#275 = DIRECTION ( 'NONE',  ( -1.000000000000000000, 0.000000000000000000, 0.000000000000000000 ) ) ;
#276 = VECTOR ( 'NONE', #186, 1000.000000000000000 ) ;
#277 = CIRCLE ( 'NONE', #293, 2.149999999999999911 ) ;
#278 =( GEOMETRIC_REPRESENTATION_CONTEXT ( 3 ) GLOBAL_UNCERTAINTY_ASSIGNED_CONTEXT ( ( #286 ) ) GLOBAL_UNIT_ASSIGNED_CONTEXT ( ( #31, #218, #52 ) ) REPRESENTATION_CONTEXT ( 'NONE', 'WORKASPACE' ) );
#279 = LINE ( 'NONE', #166, #228 ) ;
#280 = CARTESIAN_POINT ( 'NONE',  ( 0.000000000000000000, 0.000000000000000000, 1.500000000000000000 ) ) ;
#281 = VERTEX_POINT ( 'NONE', #27 ) ;
#282 = CARTESIAN_POINT ( 'NONE',  ( 0.000000000000000000, 0.000000000000000000, 1.500000000000000000 ) ) ;
#283 = ORIENTED_EDGE ( 'NONE', *, *, #149, .F. ) ;
#284 = CIRCLE ( 'NONE', #300, 0.1000000000000000472 ) ;
#285 = MECHANICAL_DESIGN_GEOMETRIC_PRESENTATION_REPRESENTATION (  '', ( #113 ), #256 ) ;
#286 = UNCERTAINTY_MEASURE_WITH_UNIT (LENGTH_MEASURE( 1.000000000000000082E-05 ), #31, 'distance_accuracy_value', 'NONE');
#287 = CARTESIAN_POINT ( 'NONE',  ( 0.000000000000000000, 0.000000000000000000, 0.000000000000000000 ) ) ;
#288 = ORIENTED_EDGE ( 'NONE', *, *, #149, .T. ) ;
#289 = EDGE_CURVE ( 'NONE', #15, #100, #121, .T. ) ;
#290 = DIRECTION ( 'NONE',  ( -0.000000000000000000, 0.000000000000000000, 1.000000000000000000 ) ) ;
#291 = VERTEX_POINT ( 'NONE', #265 ) ;
#292 = EDGE_LOOP ( 'NONE', ( #30, #54 ) ) ;
#293 = AXIS2_PLACEMENT_3D ( 'NONE', #10, #153, #249 ) ;
#294 = DIRECTION ( 'NONE',  ( 0.000000000000000000, 0.000000000000000000, -1.000000000000000000 ) ) ;
#295 = ORIENTED_EDGE ( 'NONE', *, *, #289, .F. ) ;
#296 = TOROIDAL_SURFACE ( 'NONE', #72, 2.050000000000000266, 0.1000000000000000056 ) ;
#297 = ORIENTED_EDGE ( 'NONE', *, *, #172, .T. ) ;
#298 = DIRECTION ( 'NONE',  ( 1.000000000000000000, 0.000000000000000000, 0.000000000000000000 ) ) ;
#299 = SURFACE_SIDE_STYLE ('',( #158 ) ) ;
#300 = AXIS2_PLACEMENT_3D ( 'NONE', #224, #83, #294 ) ;
#301 = DIRECTION ( 'NONE',  ( -0.000000000000000000, -0.000000000000000000, -1.000000000000000000 ) ) ;
#302 = DIRECTION ( 'NONE',  ( -0.000000000000000000, -0.000000000000000000, -1.000000000000000000 ) ) ;
#303 = FACE_OUTER_BOUND ( 'NONE', #187, .T. ) ;
#304 = TOROIDAL_SURFACE ( 'NONE', #13, 1.100000000000000089, 0.1000000000000000056 ) ;
#305 = AXIS2_PLACEMENT_3D ( 'NONE', #225, #105, #8 ) ;
#306 = DIRECTION ( 'NONE',  ( 1.000000000000000000, 0.000000000000000000, 0.000000000000000000 ) ) ;
#307 = CYLINDRICAL_SURFACE ( 'NONE', #184, 2.149999999999999911 ) ;
#308 = ORIENTED_EDGE ( 'NONE', *, *, #258, .F. ) ;
#309 = FACE_OUTER_BOUND ( 'NONE', #150, .T. ) ;
ENDSEC;
END-ISO-10303-21;
