ISO-10303-21;
HEADER;
FILE_DESCRIPTION (( 'STEP AP214' ),
    '1' );
FILE_NAME ('A858 Íàòÿæíîé àëþìèíèåâûé ðîëèê HTD5M-20-15, O âàëà 8 ìì.STEP',
    '2025-10-27T12:07:06',
    ( '' ),
    ( '' ),
    'SwSTEP 2.0',
    'SolidWorks 2025',
    '' );
FILE_SCHEMA (( 'AUTOMOTIVE_DESIGN' ));
ENDSEC;

DATA;
#1 = SURFACE_SIDE_STYLE ('',( #57 ) ) ;
#2 = DIRECTION ( 'NONE',  ( 0.000000000000000000, 0.000000000000000000, -1.000000000000000000 ) ) ;
#3 = EDGE_LOOP ( 'NONE', ( #298, #94 ) ) ;
#4 = DIRECTION ( 'NONE',  ( 0.000000000000000000, 1.000000000000000000, 0.000000000000000000 ) ) ;
#5 = ORIENTED_EDGE ( 'NONE', *, *, #261, .F. ) ;
#6 = CARTESIAN_POINT ( 'NONE',  ( 0.000000000000000000, 0.000000000000000000, 0.000000000000000000 ) ) ;
#7 = ORIENTED_EDGE ( 'NONE', *, *, #51, .F. ) ;
#8 = FACE_BOUND ( 'NONE', #81, .T. ) ;
#9 = ORIENTED_EDGE ( 'NONE', *, *, #214, .F. ) ;
#10 = CARTESIAN_POINT ( 'NONE',  ( 0.000000000000000000, -8.892276422764226140, 0.000000000000000000 ) ) ;
#11 = VERTEX_POINT ( 'NONE', #270 ) ;
#12 = FACE_BOUND ( 'NONE', #3, .T. ) ;
#13 = CIRCLE ( 'NONE', #337, 15.00000000000000000 ) ;
#14 = VERTEX_POINT ( 'NONE', #102 ) ;
#15 = PLANE ( 'NONE',  #75 ) ;
#16 = ORIENTED_EDGE ( 'NONE', *, *, #205, .T. ) ;
#17 = DIRECTION ( 'NONE',  ( -0.000000000000000000, -1.000000000000000000, -0.000000000000000000 ) ) ;
#18 = ORIENTED_EDGE ( 'NONE', *, *, #261, .T. ) ;
#19 = DIRECTION ( 'NONE',  ( -0.000000000000000000, -1.000000000000000000, -0.000000000000000000 ) ) ;
#20 = AXIS2_PLACEMENT_3D ( 'NONE', #291, #46, #151 ) ;
#21 = CARTESIAN_POINT ( 'NONE',  ( 4.898587196589412829E-16, 0.000000000000000000, -4.000000000000000000 ) ) ;
#22 = ORIENTED_EDGE ( 'NONE', *, *, #103, .T. ) ;
#23 = AXIS2_PLACEMENT_3D ( 'NONE', #186, #160, #132 ) ;
#24 = ADVANCED_FACE ( 'NONE', ( #292 ), #351, .T. ) ;
#25 = CARTESIAN_POINT ( 'NONE',  ( 0.000000000000000000, -8.892276422764226140, 0.000000000000000000 ) ) ;
#26 = PRODUCT_DEFINITION ( 'UNKNOWN', '', #221, #104 ) ;
#27 = DIRECTION ( 'NONE',  ( 0.000000000000000000, -1.000000000000000000, -0.000000000000000000 ) ) ;
#28 = UNCERTAINTY_MEASURE_WITH_UNIT (LENGTH_MEASURE( 1.000000000000000082E-05 ), #54, 'distance_accuracy_value', 'NONE');
#29 = CIRCLE ( 'NONE', #301, 17.50000000000000000 ) ;
#30 = CARTESIAN_POINT ( 'NONE',  ( 0.000000000000000000, 0.000000000000000000, 0.000000000000000000 ) ) ;
#31 = ADVANCED_FACE ( 'NONE', ( #153 ), #98, .F. ) ;
#32 = UNCERTAINTY_MEASURE_WITH_UNIT (LENGTH_MEASURE( 1.000000000000000082E-05 ), #286, 'distance_accuracy_value', 'NONE');
#33 = ORIENTED_EDGE ( 'NONE', *, *, #235, .F. ) ;
#34 = FILL_AREA_STYLE_COLOUR ( '', #135 ) ;
#35 = ORIENTED_EDGE ( 'NONE', *, *, #347, .F. ) ;
#36 = AXIS2_PLACEMENT_3D ( 'NONE', #84, #340, #342 ) ;
#37 = CARTESIAN_POINT ( 'NONE',  ( 2.143131898507868248E-15, -8.892276422764226140, 17.50000000000000000 ) ) ;
#38 = ADVANCED_FACE ( 'NONE', ( #324 ), #72, .T. ) ;
#39 = ORIENTED_EDGE ( 'NONE', *, *, #198, .T. ) ;
#40 = CARTESIAN_POINT ( 'NONE',  ( 0.000000000000000000, 2.000000000000000000, 0.000000000000000000 ) ) ;
#41 = ORIENTED_EDGE ( 'NONE', *, *, #347, .T. ) ;
#42 = CARTESIAN_POINT ( 'NONE',  ( 0.000000000000000000, -8.892276422764226140, -17.50000000000000000 ) ) ;
#43 = ORIENTED_EDGE ( 'NONE', *, *, #217, .T. ) ;
#44 = ADVANCED_FACE ( 'NONE', ( #159 ), #325, .T. ) ;
#45 = DIRECTION ( 'NONE',  ( 0.000000000000000000, 0.000000000000000000, 1.000000000000000000 ) ) ;
#46 = DIRECTION ( 'NONE',  ( -0.000000000000000000, -1.000000000000000000, -0.000000000000000000 ) ) ;
#47 = CARTESIAN_POINT ( 'NONE',  ( 2.143131898507868248E-15, 0.000000000000000000, 17.50000000000000000 ) ) ;
#48 = CARTESIAN_POINT ( 'NONE',  ( 0.000000000000000000, -8.892276422764226140, -17.50000000000000000 ) ) ;
#49 = DIRECTION ( 'NONE',  ( 0.000000000000000000, 0.000000000000000000, -1.000000000000000000 ) ) ;
#50 = AXIS2_PLACEMENT_3D ( 'NONE', #316, #262, #65 ) ;
#51 = EDGE_CURVE ( 'NONE', #11, #218, #273, .T. ) ;
#52 = CARTESIAN_POINT ( 'NONE',  ( 0.000000000000000000, 2.000000000000000000, 0.000000000000000000 ) ) ;
#53 = FACE_OUTER_BOUND ( 'NONE', #333, .T. ) ;
#54 =( LENGTH_UNIT ( ) NAMED_UNIT ( * ) SI_UNIT ( .MILLI., .METRE. ) );
#55 = VECTOR ( 'NONE', #243, 1000.000000000000000 ) ;
#56 = PRESENTATION_STYLE_ASSIGNMENT (( #168 ) ) ;
#57 = SURFACE_STYLE_FILL_AREA ( #110 ) ;
#58 = ORIENTED_EDGE ( 'NONE', *, *, #198, .F. ) ;
#59 = EDGE_CURVE ( 'NONE', #68, #339, #328, .T. ) ;
#60 = ORIENTED_EDGE ( 'NONE', *, *, #73, .T. ) ;
#61 = CIRCLE ( 'NONE', #321, 4.000000000000000000 ) ;
#62 = AXIS2_PLACEMENT_3D ( 'NONE', #264, #17, #210 ) ;
#63 = CARTESIAN_POINT ( 'NONE',  ( 2.143131898507868248E-15, 20.00000000000000355, 17.50000000000000000 ) ) ;
#64 = VERTEX_POINT ( 'NONE', #47 ) ;
#65 = DIRECTION ( 'NONE',  ( 0.000000000000000000, 0.000000000000000000, -1.000000000000000000 ) ) ;
#66 = ORIENTED_EDGE ( 'NONE', *, *, #331, .F. ) ;
#67 = DIRECTION ( 'NONE',  ( -0.000000000000000000, -1.000000000000000000, -0.000000000000000000 ) ) ;
#68 = VERTEX_POINT ( 'NONE', #182 ) ;
#69 = CARTESIAN_POINT ( 'NONE',  ( 0.000000000000000000, -8.892276422764226140, -15.00000000000000000 ) ) ;
#70 = DIRECTION ( 'NONE',  ( -0.000000000000000000, -1.000000000000000000, -0.000000000000000000 ) ) ;
#71 = DIRECTION ( 'NONE',  ( 0.000000000000000000, 0.000000000000000000, -1.000000000000000000 ) ) ;
#72 = CYLINDRICAL_SURFACE ( 'NONE', #336, 17.50000000000000000 ) ;
#73 = EDGE_CURVE ( 'NONE', #276, #169, #61, .T. ) ;
#74 = EDGE_LOOP ( 'NONE', ( #120, #176, #174, #289 ) ) ;
#75 = AXIS2_PLACEMENT_3D ( 'NONE', #172, #242, #204 ) ;
#76 = ORIENTED_EDGE ( 'NONE', *, *, #173, .F. ) ;
#77 = SHAPE_DEFINITION_REPRESENTATION ( #299, #348 ) ;
#78 = EDGE_CURVE ( 'NONE', #276, #86, #244, .T. ) ;
#79 = CIRCLE ( 'NONE', #279, 4.000000000000000000 ) ;
#80 = DIRECTION ( 'NONE',  ( -0.000000000000000000, -1.000000000000000000, -0.000000000000000000 ) ) ;
#81 = EDGE_LOOP ( 'NONE', ( #90, #76 ) ) ;
#82 = DIRECTION ( 'NONE',  ( 0.000000000000000000, 0.000000000000000000, -1.000000000000000000 ) ) ;
#83 = ADVANCED_FACE ( 'NONE', ( #265, #53 ), #268, .T. ) ;
#84 = CARTESIAN_POINT ( 'NONE',  ( 0.000000000000000000, 18.00000000000000355, 0.000000000000000000 ) ) ;
#85 = FACE_OUTER_BOUND ( 'NONE', #240, .T. ) ;
#86 = VERTEX_POINT ( 'NONE', #100 ) ;
#87 =( NAMED_UNIT ( * ) PLANE_ANGLE_UNIT ( ) SI_UNIT ( $, .RADIAN. ) );
#88 = EDGE_LOOP ( 'NONE', ( #18, #190, #9, #33 ) ) ;
#89 = CARTESIAN_POINT ( 'NONE',  ( 0.000000000000000000, 2.000000000000000000, -17.50000000000000000 ) ) ;
#90 = ORIENTED_EDGE ( 'NONE', *, *, #167, .F. ) ;
#91 = FACE_OUTER_BOUND ( 'NONE', #253, .T. ) ;
#92 = EDGE_LOOP ( 'NONE', ( #251, #183, #43, #236 ) ) ;
#93 = CARTESIAN_POINT ( 'NONE',  ( 0.000000000000000000, 18.00000000000000355, -15.00000000000000000 ) ) ;
#94 = ORIENTED_EDGE ( 'NONE', *, *, #99, .T. ) ;
#95 = LINE ( 'NONE', #322, #200 ) ;
#96 = LINE ( 'NONE', #69, #139 ) ;
#97 = MECHANICAL_DESIGN_GEOMETRIC_PRESENTATION_REPRESENTATION (  '', ( #314 ), #201 ) ;
#98 = CYLINDRICAL_SURFACE ( 'NONE', #219, 4.000000000000000000 ) ;
#99 = EDGE_CURVE ( 'NONE', #339, #114, #165, .T. ) ;
#100 = CARTESIAN_POINT ( 'NONE',  ( 0.000000000000000000, 20.00000000000000355, 4.000000000000000000 ) ) ;
#101 = PRODUCT_RELATED_PRODUCT_CATEGORY ( 'part', '', ( #320 ) ) ;
#102 = CARTESIAN_POINT ( 'NONE',  ( 4.898587196589412829E-16, 20.00000000000000355, -4.000000000000000000 ) ) ;
#103 = EDGE_CURVE ( 'NONE', #171, #64, #95, .T. ) ;
#104 = PRODUCT_DEFINITION_CONTEXT ( 'detailed design', #283, 'design' ) ;
#105 = CARTESIAN_POINT ( 'NONE',  ( 0.000000000000000000, 0.000000000000000000, 4.000000000000000000 ) ) ;
#106 = CIRCLE ( 'NONE', #233, 15.00000000000000000 ) ;
#107 = EDGE_CURVE ( 'NONE', #169, #14, #179, .T. ) ;
#108 =( NAMED_UNIT ( * ) SI_UNIT ( $, .STERADIAN. ) SOLID_ANGLE_UNIT ( ) );
#109 = DIRECTION ( 'NONE',  ( -0.000000000000000000, -1.000000000000000000, -0.000000000000000000 ) ) ;
#110 = FILL_AREA_STYLE ('',( #34 ) ) ;
#111 = VERTEX_POINT ( 'NONE', #226 ) ;
#112 = CIRCLE ( 'NONE', #36, 15.00000000000000000 ) ;
#113 = DIRECTION ( 'NONE',  ( 0.000000000000000000, 0.000000000000000000, 1.000000000000000000 ) ) ;
#114 = VERTEX_POINT ( 'NONE', #338 ) ;
#115 = DIRECTION ( 'NONE',  ( -0.000000000000000000, -1.000000000000000000, -0.000000000000000000 ) ) ;
#116 = ORIENTED_EDGE ( 'NONE', *, *, #73, .F. ) ;
#117 = DIRECTION ( 'NONE',  ( -0.000000000000000000, -1.000000000000000000, -0.000000000000000000 ) ) ;
#118 = AXIS2_PLACEMENT_3D ( 'NONE', #277, #306, #196 ) ;
#119 = CARTESIAN_POINT ( 'NONE',  ( 1.836970198721029589E-15, 2.000000000000000000, 15.00000000000000000 ) ) ;
#120 = ORIENTED_EDGE ( 'NONE', *, *, #167, .T. ) ;
#121 = CARTESIAN_POINT ( 'NONE',  ( 0.000000000000000000, -8.892276422764226140, 0.000000000000000000 ) ) ;
#122 = CARTESIAN_POINT ( 'NONE',  ( 0.000000000000000000, 18.00000000000000355, 0.000000000000000000 ) ) ;
#123 = EDGE_CURVE ( 'NONE', #282, #171, #259, .T. ) ;
#124 = DIRECTION ( 'NONE',  ( 0.000000000000000000, 0.000000000000000000, -1.000000000000000000 ) ) ;
#125 = LINE ( 'NONE', #48, #353 ) ;
#126 = CIRCLE ( 'NONE', #269, 17.50000000000000000 ) ;
#127 = DIRECTION ( 'NONE',  ( 0.000000000000000000, 1.000000000000000000, 0.000000000000000000 ) ) ;
#128 = CARTESIAN_POINT ( 'NONE',  ( 0.000000000000000000, 18.00000000000000355, 0.000000000000000000 ) ) ;
#129 = EDGE_CURVE ( 'NONE', #303, #11, #192, .T. ) ;
#130 = AXIS2_PLACEMENT_3D ( 'NONE', #6, #310, #113 ) ;
#131 = AXIS2_PLACEMENT_3D ( 'NONE', #10, #117, #230 ) ;
#132 = DIRECTION ( 'NONE',  ( 1.000000000000000000, 0.000000000000000000, 0.000000000000000000 ) ) ;
#133 = ADVANCED_FACE ( 'NONE', ( #85, #8 ), #134, .T. ) ;
#134 = PLANE ( 'NONE',  #147 ) ;
#135 = COLOUR_RGB ( '',0.7921568627450980005, 0.8196078431372548767, 0.9333333333333333481 ) ;
#136 = CARTESIAN_POINT ( 'NONE',  ( 0.000000000000000000, 20.00000000000000355, 0.000000000000000000 ) ) ;
#137 = ORIENTED_EDGE ( 'NONE', *, *, #78, .F. ) ;
#138 = ORIENTED_EDGE ( 'NONE', *, *, #163, .F. ) ;
#139 = VECTOR ( 'NONE', #19, 1000.000000000000000 ) ;
#140 = DIRECTION ( 'NONE',  ( 0.000000000000000000, 0.000000000000000000, -1.000000000000000000 ) ) ;
#141 = ORIENTED_EDGE ( 'NONE', *, *, #331, .T. ) ;
#142 = FACE_OUTER_BOUND ( 'NONE', #74, .T. ) ;
#143 = ORIENTED_EDGE ( 'NONE', *, *, #123, .F. ) ;
#144 = ADVANCED_FACE ( 'NONE', ( #191 ), #335, .F. ) ;
#145 = DIRECTION ( 'NONE',  ( -0.000000000000000000, -1.000000000000000000, -0.000000000000000000 ) ) ;
#146 = ORIENTED_EDGE ( 'NONE', *, *, #51, .T. ) ;
#147 = AXIS2_PLACEMENT_3D ( 'NONE', #254, #27, #170 ) ;
#148 = VECTOR ( 'NONE', #352, 1000.000000000000000 ) ;
#149 = DIRECTION ( 'NONE',  ( 0.000000000000000000, 0.000000000000000000, -1.000000000000000000 ) ) ;
#150 = DIRECTION ( 'NONE',  ( 0.000000000000000000, 0.000000000000000000, -1.000000000000000000 ) ) ;
#151 = DIRECTION ( 'NONE',  ( 0.000000000000000000, 0.000000000000000000, -1.000000000000000000 ) ) ;
#152 = EDGE_CURVE ( 'NONE', #303, #280, #161, .T. ) ;
#153 = FACE_OUTER_BOUND ( 'NONE', #309, .T. ) ;
#154 = CARTESIAN_POINT ( 'NONE',  ( 0.000000000000000000, 0.000000000000000000, 4.000000000000000000 ) ) ;
#155 = DIRECTION ( 'NONE',  ( 0.000000000000000000, 1.000000000000000000, 0.000000000000000000 ) ) ;
#156 = AXIS2_PLACEMENT_3D ( 'NONE', #52, #355, #124 ) ;
#157 = PRESENTATION_LAYER_ASSIGNMENT (  '', '', ( #314 ) ) ;
#158 = CARTESIAN_POINT ( 'NONE',  ( 0.000000000000000000, 0.000000000000000000, 0.000000000000000000 ) ) ;
#159 = FACE_OUTER_BOUND ( 'NONE', #92, .T. ) ;
#160 = DIRECTION ( 'NONE',  ( 0.000000000000000000, 0.000000000000000000, 1.000000000000000000 ) ) ;
#161 = CIRCLE ( 'NONE', #287, 17.50000000000000000 ) ;
#162 = CARTESIAN_POINT ( 'NONE',  ( 0.000000000000000000, 2.000000000000000000, 0.000000000000000000 ) ) ;
#163 = EDGE_CURVE ( 'NONE', #86, #14, #288, .T. ) ;
#164 = PLANE ( 'NONE',  #358 ) ;
#165 = CIRCLE ( 'NONE', #156, 15.00000000000000000 ) ;
#166 = CIRCLE ( 'NONE', #20, 17.50000000000000000 ) ;
#167 = EDGE_CURVE ( 'NONE', #341, #68, #106, .T. ) ;
#168 = SURFACE_STYLE_USAGE ( .BOTH. , #1 ) ;
#169 = VERTEX_POINT ( 'NONE', #228 ) ;
#170 = DIRECTION ( 'NONE',  ( 0.000000000000000000, 0.000000000000000000, -1.000000000000000000 ) ) ;
#171 = VERTEX_POINT ( 'NONE', #308 ) ;
#172 = CARTESIAN_POINT ( 'NONE',  ( 17.50000000000000000, 2.000000000000000000, 0.000000000000000000 ) ) ;
#173 = EDGE_CURVE ( 'NONE', #68, #341, #112, .T. ) ;
#174 = ORIENTED_EDGE ( 'NONE', *, *, #302, .F. ) ;
#175 = DIRECTION ( 'NONE',  ( 0.000000000000000000, 1.000000000000000000, 0.000000000000000000 ) ) ;
#176 = ORIENTED_EDGE ( 'NONE', *, *, #59, .T. ) ;
#177 = ORIENTED_EDGE ( 'NONE', *, *, #103, .F. ) ;
#178 = LINE ( 'NONE', #42, #148 ) ;
#179 = LINE ( 'NONE', #21, #55 ) ;
#180 = CARTESIAN_POINT ( 'NONE',  ( 0.000000000000000000, 18.00000000000000355, -17.50000000000000000 ) ) ;
#181 = MANIFOLD_SOLID_BREP ( '\X2\0412044b044004350437\X0\-\X2\0412044b0442044f043d04430442044c\X0\1', #278 ) ;
#182 = CARTESIAN_POINT ( 'NONE',  ( 1.836970198721029589E-15, 18.00000000000000355, 15.00000000000000000 ) ) ;
#183 = ORIENTED_EDGE ( 'NONE', *, *, #173, .T. ) ;
#184 = CIRCLE ( 'NONE', #252, 4.000000000000000000 ) ;
#185 = DIRECTION ( 'NONE',  ( -0.000000000000000000, 1.000000000000000000, -0.000000000000000000 ) ) ;
#186 = CARTESIAN_POINT ( 'NONE',  ( 0.000000000000000000, 0.000000000000000000, 0.000000000000000000 ) ) ;
#187 = ADVANCED_FACE ( 'NONE', ( #334, #304 ), #164, .T. ) ;
#188 = CIRCLE ( 'NONE', #241, 17.50000000000000000 ) ;
#189 = CARTESIAN_POINT ( 'NONE',  ( 0.000000000000000000, 18.00000000000000355, 0.000000000000000000 ) ) ;
#190 = ORIENTED_EDGE ( 'NONE', *, *, #129, .T. ) ;
#191 = FACE_OUTER_BOUND ( 'NONE', #229, .T. ) ;
#192 = LINE ( 'NONE', #37, #305 ) ;
#193 = ORIENTED_EDGE ( 'NONE', *, *, #245, .T. ) ;
#194 = DIRECTION ( 'NONE',  ( -0.000000000000000000, -1.000000000000000000, -0.000000000000000000 ) ) ;
#195 = ORIENTED_EDGE ( 'NONE', *, *, #78, .T. ) ;
#196 = DIRECTION ( 'NONE',  ( 0.000000000000000000, 0.000000000000000000, 1.000000000000000000 ) ) ;
#197 = ORIENTED_EDGE ( 'NONE', *, *, #205, .F. ) ;
#198 = EDGE_CURVE ( 'NONE', #169, #276, #184, .T. ) ;
#199 = CARTESIAN_POINT ( 'NONE',  ( 0.000000000000000000, 0.000000000000000000, 0.000000000000000000 ) ) ;
#200 = VECTOR ( 'NONE', #70, 1000.000000000000000 ) ;
#201 =( GEOMETRIC_REPRESENTATION_CONTEXT ( 3 ) GLOBAL_UNCERTAINTY_ASSIGNED_CONTEXT ( ( #28 ) ) GLOBAL_UNIT_ASSIGNED_CONTEXT ( ( #54, #87, #108 ) ) REPRESENTATION_CONTEXT ( 'NONE', 'WORKASPACE' ) );
#202 = DIRECTION ( 'NONE',  ( -0.000000000000000000, -1.000000000000000000, -0.000000000000000000 ) ) ;
#203 = ORIENTED_EDGE ( 'NONE', *, *, #235, .T. ) ;
#204 = DIRECTION ( 'NONE',  ( 0.000000000000000000, -0.000000000000000000, 1.000000000000000000 ) ) ;
#205 = EDGE_CURVE ( 'NONE', #171, #282, #29, .T. ) ;
#206 = ORIENTED_EDGE ( 'NONE', *, *, #163, .T. ) ;
#207 = DIRECTION ( 'NONE',  ( 0.000000000000000000, 0.000000000000000000, -1.000000000000000000 ) ) ;
#208 = DIRECTION ( 'NONE',  ( -0.000000000000000000, 1.000000000000000000, -0.000000000000000000 ) ) ;
#209 = AXIS2_PLACEMENT_3D ( 'NONE', #272, #354, #211 ) ;
#210 = DIRECTION ( 'NONE',  ( 0.000000000000000000, 0.000000000000000000, -1.000000000000000000 ) ) ;
#211 = DIRECTION ( 'NONE',  ( 0.000000000000000000, 0.000000000000000000, -1.000000000000000000 ) ) ;
#212 = ORIENTED_EDGE ( 'NONE', *, *, #107, .T. ) ;
#213 =( NAMED_UNIT ( * ) PLANE_ANGLE_UNIT ( ) SI_UNIT ( $, .RADIAN. ) );
#214 = EDGE_CURVE ( 'NONE', #218, #11, #329, .T. ) ;
#215 = DIRECTION ( 'NONE',  ( -0.000000000000000000, -1.000000000000000000, -0.000000000000000000 ) ) ;
#216 = AXIS2_PLACEMENT_3D ( 'NONE', #332, #155, #263 ) ;
#217 = EDGE_CURVE ( 'NONE', #341, #114, #96, .T. ) ;
#218 = VERTEX_POINT ( 'NONE', #180 ) ;
#219 = AXIS2_PLACEMENT_3D ( 'NONE', #158, #208, #45 ) ;
#220 = CARTESIAN_POINT ( 'NONE',  ( 1.836970198721029589E-15, -8.892276422764226140, 15.00000000000000000 ) ) ;
#221 = PRODUCT_DEFINITION_FORMATION_WITH_SPECIFIED_SOURCE ( 'ANY', '', #320, .NOT_KNOWN. ) ;
#222 = DIRECTION ( 'NONE',  ( -0.000000000000000000, -1.000000000000000000, -0.000000000000000000 ) ) ;
#223 = AXIS2_PLACEMENT_3D ( 'NONE', #162, #222, #82 ) ;
#224 =( GEOMETRIC_REPRESENTATION_CONTEXT ( 3 ) GLOBAL_UNCERTAINTY_ASSIGNED_CONTEXT ( ( #32 ) ) GLOBAL_UNIT_ASSIGNED_CONTEXT ( ( #286, #213, #356 ) ) REPRESENTATION_CONTEXT ( 'NONE', 'WORKASPACE' ) );
#225 = ORIENTED_EDGE ( 'NONE', *, *, #152, .T. ) ;
#226 = CARTESIAN_POINT ( 'NONE',  ( 0.000000000000000000, 0.000000000000000000, -17.50000000000000000 ) ) ;
#227 = EDGE_LOOP ( 'NONE', ( #257, #22, #311, #260 ) ) ;
#228 = CARTESIAN_POINT ( 'NONE',  ( 4.898587196589412829E-16, 0.000000000000000000, -4.000000000000000000 ) ) ;
#229 = EDGE_LOOP ( 'NONE', ( #58, #212, #141, #137 ) ) ;
#230 = DIRECTION ( 'NONE',  ( 0.000000000000000000, 0.000000000000000000, -1.000000000000000000 ) ) ;
#231 = AXIS2_PLACEMENT_3D ( 'NONE', #121, #80, #49 ) ;
#232 = ORIENTED_EDGE ( 'NONE', *, *, #290, .T. ) ;
#233 = AXIS2_PLACEMENT_3D ( 'NONE', #189, #194, #140 ) ;
#234 = DIRECTION ( 'NONE',  ( -0.000000000000000000, -1.000000000000000000, -0.000000000000000000 ) ) ;
#235 = EDGE_CURVE ( 'NONE', #280, #218, #178, .T. ) ;
#236 = ORIENTED_EDGE ( 'NONE', *, *, #99, .F. ) ;
#237 = DIRECTION ( 'NONE',  ( 0.000000000000000000, 0.000000000000000000, -1.000000000000000000 ) ) ;
#238 = DIRECTION ( 'NONE',  ( -0.000000000000000000, -1.000000000000000000, -0.000000000000000000 ) ) ;
#239 = DIRECTION ( 'NONE',  ( -0.000000000000000000, -1.000000000000000000, -0.000000000000000000 ) ) ;
#240 = EDGE_LOOP ( 'NONE', ( #357, #146 ) ) ;
#241 = AXIS2_PLACEMENT_3D ( 'NONE', #199, #202, #312 ) ;
#242 = DIRECTION ( 'NONE',  ( 0.000000000000000000, 1.000000000000000000, 0.000000000000000000 ) ) ;
#243 = DIRECTION ( 'NONE',  ( -0.000000000000000000, 1.000000000000000000, -0.000000000000000000 ) ) ;
#244 = LINE ( 'NONE', #105, #313 ) ;
#245 = EDGE_CURVE ( 'NONE', #282, #111, #125, .T. ) ;
#246 = DIRECTION ( 'NONE',  ( 0.000000000000000000, 0.000000000000000000, -1.000000000000000000 ) ) ;
#247 = AXIS2_PLACEMENT_3D ( 'NONE', #128, #238, #150 ) ;
#248 = APPLICATION_CONTEXT ( 'automotive_design' ) ;
#249 = DIRECTION ( 'NONE',  ( 0.000000000000000000, 0.000000000000000000, 1.000000000000000000 ) ) ;
#250 = DIRECTION ( 'NONE',  ( 0.000000000000000000, 0.000000000000000000, -1.000000000000000000 ) ) ;
#251 = ORIENTED_EDGE ( 'NONE', *, *, #59, .F. ) ;
#252 = AXIS2_PLACEMENT_3D ( 'NONE', #30, #4, #249 ) ;
#253 = EDGE_LOOP ( 'NONE', ( #143, #197 ) ) ;
#254 = CARTESIAN_POINT ( 'NONE',  ( 15.00000000000000000, 18.00000000000000355, 0.000000000000000000 ) ) ;
#255 = ORIENTED_EDGE ( 'NONE', *, *, #152, .F. ) ;
#256 = CYLINDRICAL_SURFACE ( 'NONE', #131, 15.00000000000000000 ) ;
#257 = ORIENTED_EDGE ( 'NONE', *, *, #123, .T. ) ;
#258 = DIRECTION ( 'NONE',  ( 0.000000000000000000, 0.000000000000000000, 1.000000000000000000 ) ) ;
#259 = CIRCLE ( 'NONE', #223, 17.50000000000000000 ) ;
#260 = ORIENTED_EDGE ( 'NONE', *, *, #245, .F. ) ;
#261 = EDGE_CURVE ( 'NONE', #280, #303, #166, .T. ) ;
#262 = DIRECTION ( 'NONE',  ( -0.000000000000000000, -1.000000000000000000, -0.000000000000000000 ) ) ;
#263 = DIRECTION ( 'NONE',  ( 0.000000000000000000, -0.000000000000000000, 1.000000000000000000 ) ) ;
#264 = CARTESIAN_POINT ( 'NONE',  ( 0.000000000000000000, -8.892276422764226140, 0.000000000000000000 ) ) ;
#265 = FACE_BOUND ( 'NONE', #349, .T. ) ;
#266 = CARTESIAN_POINT ( 'NONE',  ( 0.000000000000000000, 2.000000000000000000, 0.000000000000000000 ) ) ;
#267 = ADVANCED_FACE ( 'NONE', ( #12, #91 ), #15, .T. ) ;
#268 = PLANE ( 'NONE',  #216 ) ;
#269 = AXIS2_PLACEMENT_3D ( 'NONE', #318, #67, #149 ) ;
#270 = CARTESIAN_POINT ( 'NONE',  ( 2.143131898507868248E-15, 18.00000000000000355, 17.50000000000000000 ) ) ;
#271 = ADVANCED_FACE ( 'NONE', ( #346 ), #323, .T. ) ;
#272 = CARTESIAN_POINT ( 'NONE',  ( 0.000000000000000000, -8.892276422764226140, 0.000000000000000000 ) ) ;
#273 = CIRCLE ( 'NONE', #247, 17.50000000000000000 ) ;
#274 = CARTESIAN_POINT ( 'NONE',  ( 0.000000000000000000, 0.000000000000000000, 0.000000000000000000 ) ) ;
#275 = DIRECTION ( 'NONE',  ( 0.000000000000000000, -1.000000000000000000, -0.000000000000000000 ) ) ;
#276 = VERTEX_POINT ( 'NONE', #154 ) ;
#277 = CARTESIAN_POINT ( 'NONE',  ( 0.000000000000000000, 20.00000000000000355, 0.000000000000000000 ) ) ;
#278 = CLOSED_SHELL ( 'NONE', ( #144, #38, #307, #330, #187, #24, #267, #44, #133, #271, #83, #31 ) ) ;
#279 = AXIS2_PLACEMENT_3D ( 'NONE', #284, #175, #258 ) ;
#280 = VERTEX_POINT ( 'NONE', #281 ) ;
#281 = CARTESIAN_POINT ( 'NONE',  ( 0.000000000000000000, 20.00000000000000355, -17.50000000000000000 ) ) ;
#282 = VERTEX_POINT ( 'NONE', #89 ) ;
#283 = APPLICATION_CONTEXT ( 'automotive_design' ) ;
#284 = CARTESIAN_POINT ( 'NONE',  ( 0.000000000000000000, 20.00000000000000355, 0.000000000000000000 ) ) ;
#285 = ORIENTED_EDGE ( 'NONE', *, *, #129, .F. ) ;
#286 =( LENGTH_UNIT ( ) NAMED_UNIT ( * ) SI_UNIT ( .MILLI., .METRE. ) );
#287 = AXIS2_PLACEMENT_3D ( 'NONE', #136, #115, #2 ) ;
#288 = CIRCLE ( 'NONE', #118, 4.000000000000000000 ) ;
#289 = ORIENTED_EDGE ( 'NONE', *, *, #217, .F. ) ;
#290 = EDGE_CURVE ( 'NONE', #111, #64, #188, .T. ) ;
#291 = CARTESIAN_POINT ( 'NONE',  ( 0.000000000000000000, 20.00000000000000355, 0.000000000000000000 ) ) ;
#292 = FACE_OUTER_BOUND ( 'NONE', #345, .T. ) ;
#293 = DIRECTION ( 'NONE',  ( -0.000000000000000000, -1.000000000000000000, -0.000000000000000000 ) ) ;
#294 = CARTESIAN_POINT ( 'NONE',  ( 0.000000000000000000, 0.000000000000000000, 0.000000000000000000 ) ) ;
#295 = APPLICATION_PROTOCOL_DEFINITION ( 'draft international standard', 'automotive_design', 1998, #283 ) ;
#296 = DIRECTION ( 'NONE',  ( -0.000000000000000000, -1.000000000000000000, -0.000000000000000000 ) ) ;
#297 = AXIS2_PLACEMENT_3D ( 'NONE', #122, #293, #207 ) ;
#298 = ORIENTED_EDGE ( 'NONE', *, *, #302, .T. ) ;
#299 = PRODUCT_DEFINITION_SHAPE ( 'NONE', 'NONE',  #26 ) ;
#300 = PRODUCT_CONTEXT ( 'NONE', #248, 'mechanical' ) ;
#301 = AXIS2_PLACEMENT_3D ( 'NONE', #266, #239, #71 ) ;
#302 = EDGE_CURVE ( 'NONE', #114, #339, #13, .T. ) ;
#303 = VERTEX_POINT ( 'NONE', #63 ) ;
#304 = FACE_OUTER_BOUND ( 'NONE', #315, .T. ) ;
#305 = VECTOR ( 'NONE', #109, 1000.000000000000000 ) ;
#306 = DIRECTION ( 'NONE',  ( 0.000000000000000000, 1.000000000000000000, 0.000000000000000000 ) ) ;
#307 = ADVANCED_FACE ( 'NONE', ( #142 ), #256, .T. ) ;
#308 = CARTESIAN_POINT ( 'NONE',  ( 2.143131898507868248E-15, 2.000000000000000000, 17.50000000000000000 ) ) ;
#309 = EDGE_LOOP ( 'NONE', ( #319, #116, #195, #206 ) ) ;
#310 = DIRECTION ( 'NONE',  ( -0.000000000000000000, 1.000000000000000000, -0.000000000000000000 ) ) ;
#311 = ORIENTED_EDGE ( 'NONE', *, *, #290, .F. ) ;
#312 = DIRECTION ( 'NONE',  ( 0.000000000000000000, 0.000000000000000000, -1.000000000000000000 ) ) ;
#313 = VECTOR ( 'NONE', #185, 1000.000000000000000 ) ;
#314 = STYLED_ITEM ( 'NONE', ( #56 ), #181 ) ;
#315 = EDGE_LOOP ( 'NONE', ( #232, #41 ) ) ;
#316 = CARTESIAN_POINT ( 'NONE',  ( 0.000000000000000000, -8.892276422764226140, 0.000000000000000000 ) ) ;
#317 = EDGE_LOOP ( 'NONE', ( #60, #39 ) ) ;
#318 = CARTESIAN_POINT ( 'NONE',  ( 0.000000000000000000, 0.000000000000000000, 0.000000000000000000 ) ) ;
#319 = ORIENTED_EDGE ( 'NONE', *, *, #107, .F. ) ;
#320 = PRODUCT ( 'A858 \X2\041d04300442044f0436043d043e0439\X0\ \X2\0430043b044e043c0438043d043804350432044b0439\X0\ \X2\0440043e043b0438043a\X0\ HTD5M-20-15, \X2\00d8\X0\ \X2\04320430043b0430\X0\ 8 \X2\043c043c\X0\', 'A858 \X2\041d04300442044f0436043d043e0439\X0\ \X2\0430043b044e043c0438043d043804350432044b0439\X0\ \X2\0440043e043b0438043a\X0\ HTD5M-20-15, \X2\00d8\X0\ \X2\04320430043b0430\X0\ 8 \X2\043c043c\X0\', '', ( #300 ) ) ;
#321 = AXIS2_PLACEMENT_3D ( 'NONE', #294, #127, #359 ) ;
#322 = CARTESIAN_POINT ( 'NONE',  ( 2.143131898507868248E-15, -8.892276422764226140, 17.50000000000000000 ) ) ;
#323 = CYLINDRICAL_SURFACE ( 'NONE', #62, 17.50000000000000000 ) ;
#324 = FACE_OUTER_BOUND ( 'NONE', #88, .T. ) ;
#325 = CYLINDRICAL_SURFACE ( 'NONE', #231, 15.00000000000000000 ) ;
#326 = APPLICATION_PROTOCOL_DEFINITION ( 'draft international standard', 'automotive_design', 1998, #248 ) ;
#327 = VECTOR ( 'NONE', #296, 1000.000000000000000 ) ;
#328 = LINE ( 'NONE', #220, #327 ) ;
#329 = CIRCLE ( 'NONE', #297, 17.50000000000000000 ) ;
#330 = ADVANCED_FACE ( 'NONE', ( #344 ), #350, .T. ) ;
#331 = EDGE_CURVE ( 'NONE', #14, #86, #79, .T. ) ;
#332 = CARTESIAN_POINT ( 'NONE',  ( 17.50000000000000000, 20.00000000000000355, 0.000000000000000000 ) ) ;
#333 = EDGE_LOOP ( 'NONE', ( #5, #255 ) ) ;
#334 = FACE_BOUND ( 'NONE', #317, .T. ) ;
#335 = CYLINDRICAL_SURFACE ( 'NONE', #130, 4.000000000000000000 ) ;
#336 = AXIS2_PLACEMENT_3D ( 'NONE', #25, #215, #246 ) ;
#337 = AXIS2_PLACEMENT_3D ( 'NONE', #40, #234, #237 ) ;
#338 = CARTESIAN_POINT ( 'NONE',  ( 0.000000000000000000, 2.000000000000000000, -15.00000000000000000 ) ) ;
#339 = VERTEX_POINT ( 'NONE', #119 ) ;
#340 = DIRECTION ( 'NONE',  ( -0.000000000000000000, -1.000000000000000000, -0.000000000000000000 ) ) ;
#341 = VERTEX_POINT ( 'NONE', #93 ) ;
#342 = DIRECTION ( 'NONE',  ( 0.000000000000000000, 0.000000000000000000, -1.000000000000000000 ) ) ;
#343 = EDGE_LOOP ( 'NONE', ( #285, #225, #203, #7 ) ) ;
#344 = FACE_OUTER_BOUND ( 'NONE', #227, .T. ) ;
#345 = EDGE_LOOP ( 'NONE', ( #177, #16, #193, #35 ) ) ;
#346 = FACE_OUTER_BOUND ( 'NONE', #343, .T. ) ;
#347 = EDGE_CURVE ( 'NONE', #64, #111, #126, .T. ) ;
#348 = ADVANCED_BREP_SHAPE_REPRESENTATION ( 'A858 \X2\041d04300442044f0436043d043e0439\X0\ \X2\0430043b044e043c0438043d043804350432044b0439\X0\ \X2\0440043e043b0438043a\X0\ HTD5M-20-15, \X2\00d8\X0\ \X2\04320430043b0430\X0\ 8 \X2\043c043c\X0\', ( #181, #23 ), #224 ) ;
#349 = EDGE_LOOP ( 'NONE', ( #138, #66 ) ) ;
#350 = CYLINDRICAL_SURFACE ( 'NONE', #50, 17.50000000000000000 ) ;
#351 = CYLINDRICAL_SURFACE ( 'NONE', #209, 17.50000000000000000 ) ;
#352 = DIRECTION ( 'NONE',  ( -0.000000000000000000, -1.000000000000000000, -0.000000000000000000 ) ) ;
#353 = VECTOR ( 'NONE', #145, 1000.000000000000000 ) ;
#354 = DIRECTION ( 'NONE',  ( -0.000000000000000000, -1.000000000000000000, -0.000000000000000000 ) ) ;
#355 = DIRECTION ( 'NONE',  ( -0.000000000000000000, -1.000000000000000000, -0.000000000000000000 ) ) ;
#356 =( NAMED_UNIT ( * ) SI_UNIT ( $, .STERADIAN. ) SOLID_ANGLE_UNIT ( ) );
#357 = ORIENTED_EDGE ( 'NONE', *, *, #214, .T. ) ;
#358 = AXIS2_PLACEMENT_3D ( 'NONE', #274, #275, #250 ) ;
#359 = DIRECTION ( 'NONE',  ( 0.000000000000000000, 0.000000000000000000, 1.000000000000000000 ) ) ;
ENDSEC;
END-ISO-10303-21;
