ISO-10303-21;
HEADER;
FILE_DESCRIPTION (( 'STEP AP214' ),
    '1' );
FILE_NAME ('A854 Íàòÿæíîé àëþìèíèåâûé ðîëèê HTD3M-30-15, O âàëà 12 ìì.STEP',
    '2025-10-27T10:49:45',
    ( '' ),
    ( '' ),
    'SwSTEP 2.0',
    'SolidWorks 2025',
    '' );
FILE_SCHEMA (( 'AUTOMOTIVE_DESIGN' ));
ENDSEC;

DATA;
#1 = ADVANCED_FACE ( 'NONE', ( #20 ), #327, .T. ) ;
#2 = PLANE ( 'NONE',  #279 ) ;
#3 = AXIS2_PLACEMENT_3D ( 'NONE', #148, #89, #116 ) ;
#4 = DIRECTION ( 'NONE',  ( 0.000000000000000000, 0.000000000000000000, -1.000000000000000000 ) ) ;
#5 =( LENGTH_UNIT ( ) NAMED_UNIT ( * ) SI_UNIT ( .MILLI., .METRE. ) );
#6 = DIRECTION ( 'NONE',  ( -0.000000000000000000, -1.000000000000000000, -0.000000000000000000 ) ) ;
#7 = EDGE_CURVE ( 'NONE', #11, #349, #228, .T. ) ;
#8 = CARTESIAN_POINT ( 'NONE',  ( 7.347880794884112834E-16, 0.000000000000000000, 5.999999999999994671 ) ) ;
#9 = VERTEX_POINT ( 'NONE', #222 ) ;
#10 = DIRECTION ( 'NONE',  ( 0.000000000000000000, 0.000000000000000000, -1.000000000000000000 ) ) ;
#11 = VERTEX_POINT ( 'NONE', #134 ) ;
#12 = EDGE_CURVE ( 'NONE', #16, #244, #223, .T. ) ;
#13 = VERTEX_POINT ( 'NONE', #302 ) ;
#14 = AXIS2_PLACEMENT_3D ( 'NONE', #277, #173, #166 ) ;
#15 = DIRECTION ( 'NONE',  ( 0.000000000000000000, 1.000000000000000000, 0.000000000000000000 ) ) ;
#16 = VERTEX_POINT ( 'NONE', #138 ) ;
#17 = VERTEX_POINT ( 'NONE', #247 ) ;
#18 = ORIENTED_EDGE ( 'NONE', *, *, #79, .T. ) ;
#19 = CIRCLE ( 'NONE', #352, 14.00000000000000000 ) ;
#20 = FACE_OUTER_BOUND ( 'NONE', #163, .T. ) ;
#21 = EDGE_LOOP ( 'NONE', ( #241, #188, #292, #324 ) ) ;
#22 = CARTESIAN_POINT ( 'NONE',  ( 0.000000000000000000, 19.99999999999999645, 0.000000000000000000 ) ) ;
#23 = ORIENTED_EDGE ( 'NONE', *, *, #66, .T. ) ;
#24 = CARTESIAN_POINT ( 'NONE',  ( 0.000000000000000000, 0.000000000000000000, -15.50000000000000000 ) ) ;
#25 = ORIENTED_EDGE ( 'NONE', *, *, #107, .F. ) ;
#26 = CIRCLE ( 'NONE', #31, 14.00000000000000000 ) ;
#27 = DIRECTION ( 'NONE',  ( -0.000000000000000000, -1.000000000000000000, -0.000000000000000000 ) ) ;
#28 = ADVANCED_FACE ( 'NONE', ( #332 ), #85, .T. ) ;
#29 = FACE_BOUND ( 'NONE', #155, .T. ) ;
#30 = DIRECTION ( 'NONE',  ( -0.000000000000000000, -1.000000000000000000, -0.000000000000000000 ) ) ;
#31 = AXIS2_PLACEMENT_3D ( 'NONE', #71, #321, #288 ) ;
#32 = DIRECTION ( 'NONE',  ( -0.000000000000000000, -1.000000000000000000, -0.000000000000000000 ) ) ;
#33 = DIRECTION ( 'NONE',  ( -0.000000000000000000, -1.000000000000000000, -0.000000000000000000 ) ) ;
#34 = FACE_BOUND ( 'NONE', #133, .T. ) ;
#35 = EDGE_LOOP ( 'NONE', ( #191, #322 ) ) ;
#36 = CIRCLE ( 'NONE', #110, 15.50000000000000000 ) ;
#37 = PRODUCT ( 'A854 \X2\041d04300442044f0436043d043e0439\X0\ \X2\0430043b044e043c0438043d043804350432044b0439\X0\ \X2\0440043e043b0438043a\X0\ HTD3M-30-15, \X2\00d8\X0\ \X2\04320430043b0430\X0\ 12 \X2\043c043c\X0\', 'A854 \X2\041d04300442044f0436043d043e0439\X0\ \X2\0430043b044e043c0438043d043804350432044b0439\X0\ \X2\0440043e043b0438043a\X0\ HTD3M-30-15, \X2\00d8\X0\ \X2\04320430043b0430\X0\ 12 \X2\043c043c\X0\', '', ( #149 ) ) ;
#38 = DIRECTION ( 'NONE',  ( -0.000000000000000000, -1.000000000000000000, -0.000000000000000000 ) ) ;
#39 = EDGE_CURVE ( 'NONE', #113, #293, #273, .T. ) ;
#40 = EDGE_LOOP ( 'NONE', ( #171, #158, #345, #48 ) ) ;
#41 = DIRECTION ( 'NONE',  ( -0.000000000000000000, -1.000000000000000000, -0.000000000000000000 ) ) ;
#42 = EDGE_LOOP ( 'NONE', ( #253, #23, #271, #351 ) ) ;
#43 = DIRECTION ( 'NONE',  ( -0.000000000000000000, -1.000000000000000000, -0.000000000000000000 ) ) ;
#44 = ORIENTED_EDGE ( 'NONE', *, *, #49, .T. ) ;
#45 = VECTOR ( 'NONE', #170, 1000.000000000000000 ) ;
#46 = AXIS2_PLACEMENT_3D ( 'NONE', #240, #41, #98 ) ;
#47 = CARTESIAN_POINT ( 'NONE',  ( 0.000000000000000000, 20.00000000000000000, 0.000000000000000000 ) ) ;
#48 = ORIENTED_EDGE ( 'NONE', *, *, #70, .F. ) ;
#49 = EDGE_CURVE ( 'NONE', #349, #11, #168, .T. ) ;
#50 = APPLICATION_PROTOCOL_DEFINITION ( 'draft international standard', 'automotive_design', 1998, #118 ) ;
#51 = CARTESIAN_POINT ( 'NONE',  ( 0.000000000000000000, 20.00000000000000000, 0.000000000000000000 ) ) ;
#52 = CARTESIAN_POINT ( 'NONE',  ( 0.000000000000000000, 19.99999999999999645, -14.00000000000000000 ) ) ;
#53 = UNCERTAINTY_MEASURE_WITH_UNIT (LENGTH_MEASURE( 1.000000000000000082E-05 ), #190, 'distance_accuracy_value', 'NONE');
#54 = VECTOR ( 'NONE', #328, 1000.000000000000000 ) ;
#55 = COLOUR_RGB ( '',0.7921568627450980005, 0.8196078431372548767, 0.9333333333333333481 ) ;
#56 = VERTEX_POINT ( 'NONE', #24 ) ;
#57 = EDGE_CURVE ( 'NONE', #239, #9, #257, .T. ) ;
#58 = ORIENTED_EDGE ( 'NONE', *, *, #259, .F. ) ;
#59 = EDGE_CURVE ( 'NONE', #13, #56, #304, .T. ) ;
#60 = DIRECTION ( 'NONE',  ( -0.000000000000000000, -1.000000000000000000, -0.000000000000000000 ) ) ;
#61 = DIRECTION ( 'NONE',  ( -0.000000000000000000, -1.000000000000000000, -0.000000000000000000 ) ) ;
#62 = PLANE ( 'NONE',  #130 ) ;
#63 = SURFACE_SIDE_STYLE ('',( #179 ) ) ;
#64 =( NAMED_UNIT ( * ) SI_UNIT ( $, .STERADIAN. ) SOLID_ANGLE_UNIT ( ) );
#65 = FILL_AREA_STYLE_COLOUR ( '', #55 ) ;
#66 = EDGE_CURVE ( 'NONE', #69, #246, #274, .T. ) ;
#67 = AXIS2_PLACEMENT_3D ( 'NONE', #344, #162, #102 ) ;
#68 = CYLINDRICAL_SURFACE ( 'NONE', #242, 15.50000000000000000 ) ;
#69 = VERTEX_POINT ( 'NONE', #86 ) ;
#70 = EDGE_CURVE ( 'NONE', #239, #11, #221, .T. ) ;
#71 = CARTESIAN_POINT ( 'NONE',  ( 0.000000000000000000, 18.00000000000000355, 0.000000000000000000 ) ) ;
#72 = ORIENTED_EDGE ( 'NONE', *, *, #270, .T. ) ;
#73 = FACE_OUTER_BOUND ( 'NONE', #305, .T. ) ;
#74 = CARTESIAN_POINT ( 'NONE',  ( 0.000000000000000000, 2.000000000000001776, -14.00000000000000000 ) ) ;
#75 = EDGE_CURVE ( 'NONE', #9, #349, #278, .T. ) ;
#76 = ORIENTED_EDGE ( 'NONE', *, *, #160, .F. ) ;
#77 = DIRECTION ( 'NONE',  ( 0.000000000000000000, 0.000000000000000000, -1.000000000000000000 ) ) ;
#78 = ORIENTED_EDGE ( 'NONE', *, *, #57, .F. ) ;
#79 = EDGE_CURVE ( 'NONE', #266, #263, #146, .T. ) ;
#80 = VECTOR ( 'NONE', #356, 1000.000000000000000 ) ;
#81 = DIRECTION ( 'NONE',  ( -0.000000000000000000, -1.000000000000000000, -0.000000000000000000 ) ) ;
#82 = ORIENTED_EDGE ( 'NONE', *, *, #59, .T. ) ;
#83 = EDGE_LOOP ( 'NONE', ( #129, #108 ) ) ;
#84 = AXIS2_PLACEMENT_3D ( 'NONE', #254, #196, #299 ) ;
#85 = CYLINDRICAL_SURFACE ( 'NONE', #143, 14.00000000000000000 ) ;
#86 = CARTESIAN_POINT ( 'NONE',  ( 1.898202538678397557E-15, 1.999999999999998224, 15.50000000000000000 ) ) ;
#87 = PRODUCT_RELATED_PRODUCT_CATEGORY ( 'part', '', ( #37 ) ) ;
#88 = ADVANCED_BREP_SHAPE_REPRESENTATION ( 'A854 \X2\041d04300442044f0436043d043e0439\X0\ \X2\0430043b044e043c0438043d043804350432044b0439\X0\ \X2\0440043e043b0438043a\X0\ HTD3M-30-15, \X2\00d8\X0\ \X2\04320430043b0430\X0\ 12 \X2\043c043c\X0\', ( #231, #298 ), #137 ) ;
#89 = DIRECTION ( 'NONE',  ( -0.000000000000000000, -1.000000000000000000, -0.000000000000000000 ) ) ;
#90 = SHAPE_DEFINITION_REPRESENTATION ( #152, #88 ) ;
#91 = DIRECTION ( 'NONE',  ( -0.000000000000000000, -1.000000000000000000, -0.000000000000000000 ) ) ;
#92 = VECTOR ( 'NONE', #60, 1000.000000000000000 ) ;
#93 = DIRECTION ( 'NONE',  ( -0.000000000000000000, -1.000000000000000000, -0.000000000000000000 ) ) ;
#94 = CARTESIAN_POINT ( 'NONE',  ( 0.000000000000000000, 18.00000000000000355, 0.000000000000000000 ) ) ;
#95 = AXIS2_PLACEMENT_3D ( 'NONE', #354, #109, #197 ) ;
#96 = STYLED_ITEM ( 'NONE', ( #177 ), #231 ) ;
#97 = AXIS2_PLACEMENT_3D ( 'NONE', #260, #15, #342 ) ;
#98 = DIRECTION ( 'NONE',  ( 0.000000000000000000, 0.000000000000000000, -1.000000000000000000 ) ) ;
#99 = ADVANCED_FACE ( 'NONE', ( #115 ), #202, .F. ) ;
#100 = CARTESIAN_POINT ( 'NONE',  ( 0.000000000000000000, 0.000000000000000000, -5.999999999999994671 ) ) ;
#101 = VERTEX_POINT ( 'NONE', #255 ) ;
#102 = DIRECTION ( 'NONE',  ( 0.000000000000000000, 0.000000000000000000, -1.000000000000000000 ) ) ;
#103 = ORIENTED_EDGE ( 'NONE', *, *, #314, .F. ) ;
#104 = UNCERTAINTY_MEASURE_WITH_UNIT (LENGTH_MEASURE( 1.000000000000000082E-05 ), #5, 'distance_accuracy_value', 'NONE');
#105 = ORIENTED_EDGE ( 'NONE', *, *, #314, .T. ) ;
#106 = DIRECTION ( 'NONE',  ( 0.000000000000000000, 0.000000000000000000, -1.000000000000000000 ) ) ;
#107 = EDGE_CURVE ( 'NONE', #101, #17, #334, .T. ) ;
#108 = ORIENTED_EDGE ( 'NONE', *, *, #145, .T. ) ;
#109 = DIRECTION ( 'NONE',  ( -0.000000000000000000, -1.000000000000000000, -0.000000000000000000 ) ) ;
#110 = AXIS2_PLACEMENT_3D ( 'NONE', #226, #232, #203 ) ;
#111 = DIRECTION ( 'NONE',  ( -0.000000000000000000, -1.000000000000000000, -0.000000000000000000 ) ) ;
#112 = ORIENTED_EDGE ( 'NONE', *, *, #172, .T. ) ;
#113 = VERTEX_POINT ( 'NONE', #339 ) ;
#114 = MECHANICAL_DESIGN_GEOMETRIC_PRESENTATION_REPRESENTATION (  '', ( #96 ), #199 ) ;
#115 = FACE_OUTER_BOUND ( 'NONE', #21, .T. ) ;
#116 = DIRECTION ( 'NONE',  ( 0.000000000000000000, 0.000000000000000000, -1.000000000000000000 ) ) ;
#117 = FACE_OUTER_BOUND ( 'NONE', #301, .T. ) ;
#118 = APPLICATION_CONTEXT ( 'automotive_design' ) ;
#119 = AXIS2_PLACEMENT_3D ( 'NONE', #150, #27, #153 ) ;
#120 = EDGE_CURVE ( 'NONE', #293, #263, #224, .T. ) ;
#121 = CARTESIAN_POINT ( 'NONE',  ( 0.000000000000000000, 0.000000000000000000, 0.000000000000000000 ) ) ;
#122 = DIRECTION ( 'NONE',  ( 0.000000000000000000, 0.000000000000000000, -1.000000000000000000 ) ) ;
#123 = CARTESIAN_POINT ( 'NONE',  ( 0.000000000000000000, 19.99999999999999645, 0.000000000000000000 ) ) ;
#124 = CYLINDRICAL_SURFACE ( 'NONE', #312, 5.999999999999992895 ) ;
#125 = ORIENTED_EDGE ( 'NONE', *, *, #178, .F. ) ;
#126 = CYLINDRICAL_SURFACE ( 'NONE', #164, 15.50000000000000000 ) ;
#127 = ORIENTED_EDGE ( 'NONE', *, *, #172, .F. ) ;
#128 = CYLINDRICAL_SURFACE ( 'NONE', #67, 14.00000000000000000 ) ;
#129 = ORIENTED_EDGE ( 'NONE', *, *, #207, .T. ) ;
#130 = AXIS2_PLACEMENT_3D ( 'NONE', #175, #258, #180 ) ;
#131 = CARTESIAN_POINT ( 'NONE',  ( 0.000000000000000000, 1.999999999999998224, 0.000000000000000000 ) ) ;
#132 = EDGE_LOOP ( 'NONE', ( #78, #296 ) ) ;
#133 = EDGE_LOOP ( 'NONE', ( #214, #290 ) ) ;
#134 = CARTESIAN_POINT ( 'NONE',  ( 0.000000000000000000, 18.00000000000000355, -15.50000000000000000 ) ) ;
#135 = EDGE_CURVE ( 'NONE', #13, #69, #36, .T. ) ;
#136 = CIRCLE ( 'NONE', #307, 14.00000000000000000 ) ;
#137 =( GEOMETRIC_REPRESENTATION_CONTEXT ( 3 ) GLOBAL_UNCERTAINTY_ASSIGNED_CONTEXT ( ( #53 ) ) GLOBAL_UNIT_ASSIGNED_CONTEXT ( ( #190, #318, #216 ) ) REPRESENTATION_CONTEXT ( 'NONE', 'WORKASPACE' ) );
#138 = CARTESIAN_POINT ( 'NONE',  ( 0.000000000000000000, 18.00000000000000355, -14.00000000000000000 ) ) ;
#139 = ORIENTED_EDGE ( 'NONE', *, *, #120, .F. ) ;
#140 = DIRECTION ( 'NONE',  ( 0.000000000000000000, 0.000000000000000000, -1.000000000000000000 ) ) ;
#141 = EDGE_CURVE ( 'NONE', #244, #17, #136, .T. ) ;
#142 = DIRECTION ( 'NONE',  ( -0.000000000000000000, -1.000000000000000000, -0.000000000000000000 ) ) ;
#143 = AXIS2_PLACEMENT_3D ( 'NONE', #22, #61, #219 ) ;
#144 = AXIS2_PLACEMENT_3D ( 'NONE', #131, #267, #243 ) ;
#145 = EDGE_CURVE ( 'NONE', #246, #56, #336, .T. ) ;
#146 = LINE ( 'NONE', #251, #80 ) ;
#147 = CARTESIAN_POINT ( 'NONE',  ( 0.000000000000000000, 0.000000000000000000, 0.000000000000000000 ) ) ;
#148 = CARTESIAN_POINT ( 'NONE',  ( 0.000000000000000000, 2.000000000000001776, 0.000000000000000000 ) ) ;
#149 = PRODUCT_CONTEXT ( 'NONE', #118, 'mechanical' ) ;
#150 = CARTESIAN_POINT ( 'NONE',  ( 0.000000000000000000, 0.000000000000000000, 0.000000000000000000 ) ) ;
#151 = PRODUCT_DEFINITION ( 'UNKNOWN', '', #189, #320 ) ;
#152 = PRODUCT_DEFINITION_SHAPE ( 'NONE', 'NONE',  #151 ) ;
#153 = DIRECTION ( 'NONE',  ( 0.000000000000000000, 0.000000000000000000, -1.000000000000000000 ) ) ;
#154 = CYLINDRICAL_SURFACE ( 'NONE', #337, 15.50000000000000000 ) ;
#155 = EDGE_LOOP ( 'NONE', ( #198, #105 ) ) ;
#156 = AXIS2_PLACEMENT_3D ( 'NONE', #309, #32, #122 ) ;
#157 = CARTESIAN_POINT ( 'NONE',  ( 0.000000000000000000, 20.00000000000000000, -15.50000000000000000 ) ) ;
#158 = ORIENTED_EDGE ( 'NONE', *, *, #75, .T. ) ;
#159 = CARTESIAN_POINT ( 'NONE',  ( 1.898202538678397557E-15, 18.00000000000000355, 15.50000000000000000 ) ) ;
#160 = EDGE_CURVE ( 'NONE', #101, #16, #19, .T. ) ;
#161 = ORIENTED_EDGE ( 'NONE', *, *, #160, .T. ) ;
#162 = DIRECTION ( 'NONE',  ( -0.000000000000000000, -1.000000000000000000, -0.000000000000000000 ) ) ;
#163 = EDGE_LOOP ( 'NONE', ( #343, #72, #185, #218 ) ) ;
#164 = AXIS2_PLACEMENT_3D ( 'NONE', #235, #43, #238 ) ;
#165 = EDGE_LOOP ( 'NONE', ( #209, #211, #289, #268 ) ) ;
#166 = DIRECTION ( 'NONE',  ( 0.000000000000000000, 0.000000000000000000, -1.000000000000000000 ) ) ;
#167 = CARTESIAN_POINT ( 'NONE',  ( 0.000000000000000000, 19.99999999999999645, -5.999999999999992895 ) ) ;
#168 = CIRCLE ( 'NONE', #213, 15.50000000000000000 ) ;
#169 = AXIS2_PLACEMENT_3D ( 'NONE', #121, #33, #358 ) ;
#170 = DIRECTION ( 'NONE',  ( -0.000000000000000000, -1.000000000000000000, -0.000000000000000000 ) ) ;
#171 = ORIENTED_EDGE ( 'NONE', *, *, #57, .T. ) ;
#172 = EDGE_CURVE ( 'NONE', #263, #293, #229, .T. ) ;
#173 = DIRECTION ( 'NONE',  ( -0.000000000000000000, -1.000000000000000000, -0.000000000000000000 ) ) ;
#174 = CIRCLE ( 'NONE', #3, 14.00000000000000000 ) ;
#175 = CARTESIAN_POINT ( 'NONE',  ( 5.999999999999994671, 6.027265207337949329E-17, 0.000000000000000000 ) ) ;
#176 = DIRECTION ( 'NONE',  ( 1.000000000000000000, 0.000000000000000000, 0.000000000000000000 ) ) ;
#177 = PRESENTATION_STYLE_ASSIGNMENT (( #182 ) ) ;
#178 = EDGE_CURVE ( 'NONE', #17, #244, #174, .T. ) ;
#179 = SURFACE_STYLE_FILL_AREA ( #308 ) ;
#180 = DIRECTION ( 'NONE',  ( 0.000000000000000000, 0.000000000000000000, -1.000000000000000000 ) ) ;
#181 = ADVANCED_FACE ( 'NONE', ( #233, #306 ), #62, .T. ) ;
#182 = SURFACE_STYLE_USAGE ( .BOTH. , #63 ) ;
#183 = ADVANCED_FACE ( 'NONE', ( #29, #230 ), #256, .T. ) ;
#184 = DIRECTION ( 'NONE',  ( -0.000000000000000000, -1.000000000000000000, -0.000000000000000000 ) ) ;
#185 = ORIENTED_EDGE ( 'NONE', *, *, #70, .T. ) ;
#186 = FACE_OUTER_BOUND ( 'NONE', #42, .T. ) ;
#187 = CLOSED_SHELL ( 'NONE', ( #262, #346, #300, #295, #245, #287, #28, #201, #1, #183, #99, #181 ) ) ;
#188 = ORIENTED_EDGE ( 'NONE', *, *, #310, .F. ) ;
#189 = PRODUCT_DEFINITION_FORMATION_WITH_SPECIFIED_SOURCE ( 'ANY', '', #37, .NOT_KNOWN. ) ;
#190 =( LENGTH_UNIT ( ) NAMED_UNIT ( * ) SI_UNIT ( .MILLI., .METRE. ) );
#191 = ORIENTED_EDGE ( 'NONE', *, *, #135, .F. ) ;
#192 = DIRECTION ( 'NONE',  ( -0.000000000000000000, -1.000000000000000000, -0.000000000000000000 ) ) ;
#193 = ORIENTED_EDGE ( 'NONE', *, *, #333, .T. ) ;
#194 = DIRECTION ( 'NONE',  ( 0.000000000000000000, 0.000000000000000000, -1.000000000000000000 ) ) ;
#195 = VECTOR ( 'NONE', #142, 1000.000000000000000 ) ;
#196 = DIRECTION ( 'NONE',  ( -0.000000000000000000, -1.000000000000000000, -0.000000000000000000 ) ) ;
#197 = DIRECTION ( 'NONE',  ( 0.000000000000000000, 0.000000000000000000, -1.000000000000000000 ) ) ;
#198 = ORIENTED_EDGE ( 'NONE', *, *, #310, .T. ) ;
#199 =( GEOMETRIC_REPRESENTATION_CONTEXT ( 3 ) GLOBAL_UNCERTAINTY_ASSIGNED_CONTEXT ( ( #104 ) ) GLOBAL_UNIT_ASSIGNED_CONTEXT ( ( #5, #338, #64 ) ) REPRESENTATION_CONTEXT ( 'NONE', 'WORKASPACE' ) );
#200 = DIRECTION ( 'NONE',  ( -0.000000000000000000, -1.000000000000000000, -0.000000000000000000 ) ) ;
#201 = ADVANCED_FACE ( 'NONE', ( #117, #227 ), #2, .T. ) ;
#202 = CYLINDRICAL_SURFACE ( 'NONE', #84, 5.999999999999992895 ) ;
#203 = DIRECTION ( 'NONE',  ( 0.000000000000000000, 0.000000000000000000, -1.000000000000000000 ) ) ;
#204 = DIRECTION ( 'NONE',  ( 0.000000000000000000, 0.000000000000000000, -1.000000000000000000 ) ) ;
#205 = DIRECTION ( 'NONE',  ( 0.000000000000000000, 1.000000000000000000, 0.000000000000000000 ) ) ;
#206 = CARTESIAN_POINT ( 'NONE',  ( 0.000000000000000000, 2.000000000000001776, 0.000000000000000000 ) ) ;
#207 = EDGE_CURVE ( 'NONE', #56, #246, #269, .T. ) ;
#208 = CARTESIAN_POINT ( 'NONE',  ( 0.000000000000000000, 19.99999999999999645, 0.000000000000000000 ) ) ;
#209 = ORIENTED_EDGE ( 'NONE', *, *, #259, .T. ) ;
#210 = CARTESIAN_POINT ( 'NONE',  ( 7.347880794884109875E-16, 20.00000000000000000, 5.999999999999991118 ) ) ;
#211 = ORIENTED_EDGE ( 'NONE', *, *, #107, .T. ) ;
#212 = DIRECTION ( 'NONE',  ( 0.000000000000000000, 0.000000000000000000, -1.000000000000000000 ) ) ;
#213 = AXIS2_PLACEMENT_3D ( 'NONE', #330, #200, #140 ) ;
#214 = ORIENTED_EDGE ( 'NONE', *, *, #141, .T. ) ;
#215 = AXIS2_PLACEMENT_3D ( 'NONE', #281, #205, #359 ) ;
#216 =( NAMED_UNIT ( * ) SI_UNIT ( $, .STERADIAN. ) SOLID_ANGLE_UNIT ( ) );
#217 = PLANE ( 'NONE',  #97 ) ;
#218 = ORIENTED_EDGE ( 'NONE', *, *, #49, .F. ) ;
#219 = DIRECTION ( 'NONE',  ( 0.000000000000000000, 0.000000000000000000, -1.000000000000000000 ) ) ;
#220 = AXIS2_PLACEMENT_3D ( 'NONE', #340, #91, #204 ) ;
#221 = LINE ( 'NONE', #250, #261 ) ;
#222 = CARTESIAN_POINT ( 'NONE',  ( 1.898202538678397557E-15, 20.00000000000000000, 15.50000000000000000 ) ) ;
#223 = LINE ( 'NONE', #52, #54 ) ;
#224 = CIRCLE ( 'NONE', #156, 5.999999999999994671 ) ;
#225 = DIRECTION ( 'NONE',  ( 0.000000000000000000, 0.000000000000000000, -1.000000000000000000 ) ) ;
#226 = CARTESIAN_POINT ( 'NONE',  ( 0.000000000000000000, 1.999999999999998224, 0.000000000000000000 ) ) ;
#227 = FACE_BOUND ( 'NONE', #350, .T. ) ;
#228 = CIRCLE ( 'NONE', #95, 15.50000000000000000 ) ;
#229 = CIRCLE ( 'NONE', #119, 5.999999999999994671 ) ;
#230 = FACE_OUTER_BOUND ( 'NONE', #132, .T. ) ;
#231 = MANIFOLD_SOLID_BREP ( '\X2\041f043e043204350440043d04430442044c\X0\1', #187 ) ;
#232 = DIRECTION ( 'NONE',  ( -0.000000000000000000, -1.000000000000000000, -0.000000000000000000 ) ) ;
#233 = FACE_OUTER_BOUND ( 'NONE', #83, .T. ) ;
#234 = AXIS2_PLACEMENT_3D ( 'NONE', #51, #249, #225 ) ;
#235 = CARTESIAN_POINT ( 'NONE',  ( 0.000000000000000000, 19.99999999999999645, 0.000000000000000000 ) ) ;
#236 = FACE_OUTER_BOUND ( 'NONE', #35, .T. ) ;
#237 = EDGE_LOOP ( 'NONE', ( #25, #161, #329, #125 ) ) ;
#238 = DIRECTION ( 'NONE',  ( 0.000000000000000000, 0.000000000000000000, -1.000000000000000000 ) ) ;
#239 = VERTEX_POINT ( 'NONE', #157 ) ;
#240 = CARTESIAN_POINT ( 'NONE',  ( 0.000000000000000000, 20.00000000000000000, 0.000000000000000000 ) ) ;
#241 = ORIENTED_EDGE ( 'NONE', *, *, #79, .F. ) ;
#242 = AXIS2_PLACEMENT_3D ( 'NONE', #341, #38, #77 ) ;
#243 = DIRECTION ( 'NONE',  ( 0.000000000000000000, 0.000000000000000000, -1.000000000000000000 ) ) ;
#244 = VERTEX_POINT ( 'NONE', #74 ) ;
#245 = ADVANCED_FACE ( 'NONE', ( #264 ), #68, .T. ) ;
#246 = VERTEX_POINT ( 'NONE', #291 ) ;
#247 = CARTESIAN_POINT ( 'NONE',  ( 1.714505518806294638E-15, 2.000000000000001776, 14.00000000000000000 ) ) ;
#248 = VECTOR ( 'NONE', #111, 1000.000000000000000 ) ;
#249 = DIRECTION ( 'NONE',  ( -0.000000000000000000, -1.000000000000000000, -0.000000000000000000 ) ) ;
#250 = CARTESIAN_POINT ( 'NONE',  ( 0.000000000000000000, 19.99999999999999645, -15.50000000000000000 ) ) ;
#251 = CARTESIAN_POINT ( 'NONE',  ( 7.347880794884110861E-16, 19.99999999999999645, 5.999999999999992895 ) ) ;
#252 = CIRCLE ( 'NONE', #297, 5.999999999999991118 ) ;
#253 = ORIENTED_EDGE ( 'NONE', *, *, #135, .T. ) ;
#254 = CARTESIAN_POINT ( 'NONE',  ( 0.000000000000000000, 19.99999999999999645, 0.000000000000000000 ) ) ;
#255 = CARTESIAN_POINT ( 'NONE',  ( 1.714505518806294638E-15, 18.00000000000000355, 14.00000000000000000 ) ) ;
#256 = PLANE ( 'NONE',  #215 ) ;
#257 = CIRCLE ( 'NONE', #234, 15.50000000000000000 ) ;
#258 = DIRECTION ( 'NONE',  ( 0.000000000000000000, -1.000000000000000000, -0.000000000000000000 ) ) ;
#259 = EDGE_CURVE ( 'NONE', #16, #101, #26, .T. ) ;
#260 = CARTESIAN_POINT ( 'NONE',  ( 15.50000000000000000, 2.000000000000000000, 0.000000000000000000 ) ) ;
#261 = VECTOR ( 'NONE', #81, 1000.000000000000000 ) ;
#262 = ADVANCED_FACE ( 'NONE', ( #73 ), #124, .F. ) ;
#263 = VERTEX_POINT ( 'NONE', #8 ) ;
#264 = FACE_OUTER_BOUND ( 'NONE', #317, .T. ) ;
#265 = ORIENTED_EDGE ( 'NONE', *, *, #39, .F. ) ;
#266 = VERTEX_POINT ( 'NONE', #210 ) ;
#267 = DIRECTION ( 'NONE',  ( -0.000000000000000000, -1.000000000000000000, -0.000000000000000000 ) ) ;
#268 = ORIENTED_EDGE ( 'NONE', *, *, #12, .F. ) ;
#269 = CIRCLE ( 'NONE', #220, 15.50000000000000000 ) ;
#270 = EDGE_CURVE ( 'NONE', #9, #239, #284, .T. ) ;
#271 = ORIENTED_EDGE ( 'NONE', *, *, #207, .F. ) ;
#272 = APPLICATION_CONTEXT ( 'automotive_design' ) ;
#273 = LINE ( 'NONE', #167, #45 ) ;
#274 = LINE ( 'NONE', #353, #248 ) ;
#275 = EDGE_LOOP ( 'NONE', ( #139, #127 ) ) ;
#276 = ORIENTED_EDGE ( 'NONE', *, *, #66, .F. ) ;
#277 = CARTESIAN_POINT ( 'NONE',  ( 0.000000000000000000, 19.99999999999999645, 0.000000000000000000 ) ) ;
#278 = LINE ( 'NONE', #355, #92 ) ;
#279 = AXIS2_PLACEMENT_3D ( 'NONE', #311, #335, #4 ) ;
#280 = APPLICATION_PROTOCOL_DEFINITION ( 'draft international standard', 'automotive_design', 1998, #272 ) ;
#281 = CARTESIAN_POINT ( 'NONE',  ( 15.50000000000000000, 20.00000000000000000, 0.000000000000000000 ) ) ;
#282 = DIRECTION ( 'NONE',  ( 0.000000000000000000, 0.000000000000000000, 1.000000000000000000 ) ) ;
#283 = DIRECTION ( 'NONE',  ( -0.000000000000000000, -1.000000000000000000, -0.000000000000000000 ) ) ;
#284 = CIRCLE ( 'NONE', #331, 15.50000000000000000 ) ;
#285 = CARTESIAN_POINT ( 'NONE',  ( 1.714505518806294638E-15, 19.99999999999999645, 14.00000000000000000 ) ) ;
#286 = DIRECTION ( 'NONE',  ( 0.000000000000000000, 0.000000000000000000, -1.000000000000000000 ) ) ;
#287 = ADVANCED_FACE ( 'NONE', ( #34, #236 ), #217, .T. ) ;
#288 = DIRECTION ( 'NONE',  ( 0.000000000000000000, 0.000000000000000000, -1.000000000000000000 ) ) ;
#289 = ORIENTED_EDGE ( 'NONE', *, *, #141, .F. ) ;
#290 = ORIENTED_EDGE ( 'NONE', *, *, #178, .T. ) ;
#291 = CARTESIAN_POINT ( 'NONE',  ( 1.898202538678397557E-15, 0.000000000000000000, 15.50000000000000000 ) ) ;
#292 = ORIENTED_EDGE ( 'NONE', *, *, #39, .T. ) ;
#293 = VERTEX_POINT ( 'NONE', #100 ) ;
#294 = CIRCLE ( 'NONE', #144, 15.50000000000000000 ) ;
#295 = ADVANCED_FACE ( 'NONE', ( #186 ), #126, .T. ) ;
#296 = ORIENTED_EDGE ( 'NONE', *, *, #270, .F. ) ;
#297 = AXIS2_PLACEMENT_3D ( 'NONE', #347, #6, #212 ) ;
#298 = AXIS2_PLACEMENT_3D ( 'NONE', #147, #282, #176 ) ;
#299 = DIRECTION ( 'NONE',  ( 0.000000000000000000, 0.000000000000000000, -1.000000000000000000 ) ) ;
#300 = ADVANCED_FACE ( 'NONE', ( #323 ), #128, .T. ) ;
#301 = EDGE_LOOP ( 'NONE', ( #319, #44 ) ) ;
#302 = CARTESIAN_POINT ( 'NONE',  ( 0.000000000000000000, 1.999999999999998224, -15.50000000000000000 ) ) ;
#303 = PRESENTATION_LAYER_ASSIGNMENT (  '', '', ( #96 ) ) ;
#304 = LINE ( 'NONE', #326, #195 ) ;
#305 = EDGE_LOOP ( 'NONE', ( #103, #18, #112, #265 ) ) ;
#306 = FACE_BOUND ( 'NONE', #275, .T. ) ;
#307 = AXIS2_PLACEMENT_3D ( 'NONE', #206, #93, #286 ) ;
#308 = FILL_AREA_STYLE ('',( #65 ) ) ;
#309 = CARTESIAN_POINT ( 'NONE',  ( 0.000000000000000000, 0.000000000000000000, 0.000000000000000000 ) ) ;
#310 = EDGE_CURVE ( 'NONE', #113, #266, #357, .T. ) ;
#311 = CARTESIAN_POINT ( 'NONE',  ( 14.00000000000000000, 18.00000000000000355, 0.000000000000000000 ) ) ;
#312 = AXIS2_PLACEMENT_3D ( 'NONE', #123, #192, #10 ) ;
#313 = DIRECTION ( 'NONE',  ( 0.000000000000000000, 0.000000000000000000, -1.000000000000000000 ) ) ;
#314 = EDGE_CURVE ( 'NONE', #266, #113, #252, .T. ) ;
#315 = DIRECTION ( 'NONE',  ( -0.000000000000000000, -1.000000000000000000, -0.000000000000000000 ) ) ;
#316 = ORIENTED_EDGE ( 'NONE', *, *, #145, .F. ) ;
#317 = EDGE_LOOP ( 'NONE', ( #276, #193, #82, #316 ) ) ;
#318 =( NAMED_UNIT ( * ) PLANE_ANGLE_UNIT ( ) SI_UNIT ( $, .RADIAN. ) );
#319 = ORIENTED_EDGE ( 'NONE', *, *, #7, .T. ) ;
#320 = PRODUCT_DEFINITION_CONTEXT ( 'detailed design', #272, 'design' ) ;
#321 = DIRECTION ( 'NONE',  ( -0.000000000000000000, -1.000000000000000000, -0.000000000000000000 ) ) ;
#322 = ORIENTED_EDGE ( 'NONE', *, *, #333, .F. ) ;
#323 = FACE_OUTER_BOUND ( 'NONE', #165, .T. ) ;
#324 = ORIENTED_EDGE ( 'NONE', *, *, #120, .T. ) ;
#325 = VECTOR ( 'NONE', #30, 1000.000000000000000 ) ;
#326 = CARTESIAN_POINT ( 'NONE',  ( 0.000000000000000000, 19.99999999999999645, -15.50000000000000000 ) ) ;
#327 = CYLINDRICAL_SURFACE ( 'NONE', #14, 15.50000000000000000 ) ;
#328 = DIRECTION ( 'NONE',  ( -0.000000000000000000, -1.000000000000000000, -0.000000000000000000 ) ) ;
#329 = ORIENTED_EDGE ( 'NONE', *, *, #12, .T. ) ;
#330 = CARTESIAN_POINT ( 'NONE',  ( 0.000000000000000000, 18.00000000000000355, 0.000000000000000000 ) ) ;
#331 = AXIS2_PLACEMENT_3D ( 'NONE', #47, #184, #106 ) ;
#332 = FACE_OUTER_BOUND ( 'NONE', #237, .T. ) ;
#333 = EDGE_CURVE ( 'NONE', #69, #13, #294, .T. ) ;
#334 = LINE ( 'NONE', #285, #325 ) ;
#335 = DIRECTION ( 'NONE',  ( 0.000000000000000000, -1.000000000000000000, -0.000000000000000000 ) ) ;
#336 = CIRCLE ( 'NONE', #169, 15.50000000000000000 ) ;
#337 = AXIS2_PLACEMENT_3D ( 'NONE', #208, #315, #194 ) ;
#338 =( NAMED_UNIT ( * ) PLANE_ANGLE_UNIT ( ) SI_UNIT ( $, .RADIAN. ) );
#339 = CARTESIAN_POINT ( 'NONE',  ( 0.000000000000000000, 20.00000000000000000, -5.999999999999991118 ) ) ;
#340 = CARTESIAN_POINT ( 'NONE',  ( 0.000000000000000000, 0.000000000000000000, 0.000000000000000000 ) ) ;
#341 = CARTESIAN_POINT ( 'NONE',  ( 0.000000000000000000, 19.99999999999999645, 0.000000000000000000 ) ) ;
#342 = DIRECTION ( 'NONE',  ( 0.000000000000000000, -0.000000000000000000, 1.000000000000000000 ) ) ;
#343 = ORIENTED_EDGE ( 'NONE', *, *, #75, .F. ) ;
#344 = CARTESIAN_POINT ( 'NONE',  ( 0.000000000000000000, 19.99999999999999645, 0.000000000000000000 ) ) ;
#345 = ORIENTED_EDGE ( 'NONE', *, *, #7, .F. ) ;
#346 = ADVANCED_FACE ( 'NONE', ( #348 ), #154, .T. ) ;
#347 = CARTESIAN_POINT ( 'NONE',  ( 0.000000000000000000, 20.00000000000000000, 0.000000000000000000 ) ) ;
#348 = FACE_OUTER_BOUND ( 'NONE', #40, .T. ) ;
#349 = VERTEX_POINT ( 'NONE', #159 ) ;
#350 = EDGE_LOOP ( 'NONE', ( #58, #76 ) ) ;
#351 = ORIENTED_EDGE ( 'NONE', *, *, #59, .F. ) ;
#352 = AXIS2_PLACEMENT_3D ( 'NONE', #94, #283, #313 ) ;
#353 = CARTESIAN_POINT ( 'NONE',  ( 1.898202538678397557E-15, 19.99999999999999645, 15.50000000000000000 ) ) ;
#354 = CARTESIAN_POINT ( 'NONE',  ( 0.000000000000000000, 18.00000000000000355, 0.000000000000000000 ) ) ;
#355 = CARTESIAN_POINT ( 'NONE',  ( 1.898202538678397557E-15, 19.99999999999999645, 15.50000000000000000 ) ) ;
#356 = DIRECTION ( 'NONE',  ( -0.000000000000000000, -1.000000000000000000, -0.000000000000000000 ) ) ;
#357 = CIRCLE ( 'NONE', #46, 5.999999999999991118 ) ;
#358 = DIRECTION ( 'NONE',  ( 0.000000000000000000, 0.000000000000000000, -1.000000000000000000 ) ) ;
#359 = DIRECTION ( 'NONE',  ( 0.000000000000000000, -0.000000000000000000, 1.000000000000000000 ) ) ;
ENDSEC;
END-ISO-10303-21;
