ISO-10303-21;
HEADER;
FILE_DESCRIPTION (( 'STEP AP214' ),
    '1' );
FILE_NAME ('A850 Íàòÿæíîé àëþìèíèåâûé ðîëèê HTD3M-18-15, O âàëà 5 ìì.STEP',
    '2025-10-27T09:55:51',
    ( '' ),
    ( '' ),
    'SwSTEP 2.0',
    'SolidWorks 2025',
    '' );
FILE_SCHEMA (( 'AUTOMOTIVE_DESIGN' ));
ENDSEC;

DATA;
#1 = ADVANCED_FACE ( 'NONE', ( #332 ), #359, .T. ) ;
#2 = LINE ( 'NONE', #123, #224 ) ;
#3 = ORIENTED_EDGE ( 'NONE', *, *, #288, .F. ) ;
#4 = CARTESIAN_POINT ( 'NONE',  ( 1.224646799147353256E-15, -22.66129032258060150, 10.00000000000000000 ) ) ;
#5 = ORIENTED_EDGE ( 'NONE', *, *, #169, .T. ) ;
#6 = CARTESIAN_POINT ( 'NONE',  ( 0.000000000000000000, 0.000000000000000000, 0.000000000000000000 ) ) ;
#7 = ORIENTED_EDGE ( 'NONE', *, *, #211, .T. ) ;
#8 = AXIS2_PLACEMENT_3D ( 'NONE', #259, #225, #198 ) ;
#9 = AXIS2_PLACEMENT_3D ( 'NONE', #44, #158, #159 ) ;
#10 = CARTESIAN_POINT ( 'NONE',  ( 0.000000000000000000, 2.000000000000001776, -8.199999999999999289 ) ) ;
#11 = DIRECTION ( 'NONE',  ( -0.000000000000000000, -1.000000000000000000, -0.000000000000000000 ) ) ;
#12 = DIRECTION ( 'NONE',  ( -0.000000000000000000, -1.000000000000000000, -0.000000000000000000 ) ) ;
#13 = AXIS2_PLACEMENT_3D ( 'NONE', #50, #240, #157 ) ;
#14 = CARTESIAN_POINT ( 'NONE',  ( 0.000000000000000000, 2.000000000000001776, -10.00000000000000000 ) ) ;
#15 = AXIS2_PLACEMENT_3D ( 'NONE', #89, #349, #221 ) ;
#16 = VECTOR ( 'NONE', #299, 1000.000000000000000 ) ;
#17 = DIRECTION ( 'NONE',  ( -0.000000000000000000, -1.000000000000000000, -0.000000000000000000 ) ) ;
#18 = ADVANCED_BREP_SHAPE_REPRESENTATION ( 'A850 \X2\041d04300442044f0436043d043e0439\X0\ \X2\0430043b044e043c0438043d043804350432044b0439\X0\ \X2\0440043e043b0438043a\X0\ HTD3M-18-15, \X2\00d8\X0\ \X2\04320430043b0430\X0\ 5 \X2\043c043c\X0\', ( #30, #15 ), #236 ) ;
#19 = CARTESIAN_POINT ( 'NONE',  ( 0.000000000000000000, -22.66129032258060150, 0.000000000000000000 ) ) ;
#20 = DIRECTION ( 'NONE',  ( 0.000000000000000000, 0.000000000000000000, 1.000000000000000000 ) ) ;
#21 = VECTOR ( 'NONE', #308, 1000.000000000000000 ) ;
#22 = AXIS2_PLACEMENT_3D ( 'NONE', #179, #17, #103 ) ;
#23 = ORIENTED_EDGE ( 'NONE', *, *, #69, .F. ) ;
#24 = VERTEX_POINT ( 'NONE', #165 ) ;
#25 = EDGE_LOOP ( 'NONE', ( #172, #27, #3, #124 ) ) ;
#26 = DIRECTION ( 'NONE',  ( 0.000000000000000000, 1.000000000000000000, 0.000000000000000000 ) ) ;
#27 = ORIENTED_EDGE ( 'NONE', *, *, #38, .T. ) ;
#28 = EDGE_LOOP ( 'NONE', ( #23, #150, #218, #244 ) ) ;
#29 = ORIENTED_EDGE ( 'NONE', *, *, #169, .F. ) ;
#30 = MANIFOLD_SOLID_BREP ( '\X2\0412044b044004350437\X0\-\X2\0412044b0442044f043d04430442044c\X0\1', #41 ) ;
#31 = CARTESIAN_POINT ( 'NONE',  ( 1.224646799147353256E-15, 2.000000000000001776, 10.00000000000000000 ) ) ;
#32 = VERTEX_POINT ( 'NONE', #279 ) ;
#33 = AXIS2_PLACEMENT_3D ( 'NONE', #257, #314, #339 ) ;
#34 = CIRCLE ( 'NONE', #93, 10.00000000000000000 ) ;
#35 = CARTESIAN_POINT ( 'NONE',  ( 3.000384657911016356E-16, 0.000000000000000000, -2.450000000000000622 ) ) ;
#36 = VERTEX_POINT ( 'NONE', #31 ) ;
#37 = CARTESIAN_POINT ( 'NONE',  ( 10.00000000000000000, 19.99999999999999645, 0.000000000000000000 ) ) ;
#38 = EDGE_CURVE ( 'NONE', #254, #312, #143, .T. ) ;
#39 = ORIENTED_EDGE ( 'NONE', *, *, #45, .T. ) ;
#40 = FACE_OUTER_BOUND ( 'NONE', #28, .T. ) ;
#41 = CLOSED_SHELL ( 'NONE', ( #164, #239, #180, #1, #130, #285, #191, #310, #112, #323, #107, #160 ) ) ;
#42 = CIRCLE ( 'NONE', #173, 8.199999999999997513 ) ;
#43 = DIRECTION ( 'NONE',  ( -0.000000000000000000, 1.000000000000000000, -0.000000000000000000 ) ) ;
#44 = CARTESIAN_POINT ( 'NONE',  ( 0.000000000000000000, 2.000000000000001776, 0.000000000000000000 ) ) ;
#45 = EDGE_CURVE ( 'NONE', #215, #24, #2, .T. ) ;
#46 = FACE_OUTER_BOUND ( 'NONE', #25, .T. ) ;
#47 = AXIS2_PLACEMENT_3D ( 'NONE', #6, #72, #65 ) ;
#48 = FACE_OUTER_BOUND ( 'NONE', #302, .T. ) ;
#49 = AXIS2_PLACEMENT_3D ( 'NONE', #316, #12, #137 ) ;
#50 = CARTESIAN_POINT ( 'NONE',  ( 0.000000000000000000, 2.000000000000001776, 0.000000000000000000 ) ) ;
#51 = CARTESIAN_POINT ( 'NONE',  ( 10.00000000000000000, 2.000000000000000000, 0.000000000000000000 ) ) ;
#52 = EDGE_LOOP ( 'NONE', ( #250, #298, #196, #68 ) ) ;
#53 = AXIS2_PLACEMENT_3D ( 'NONE', #125, #228, #338 ) ;
#54 = CIRCLE ( 'NONE', #61, 2.450000000000000622 ) ;
#55 = CARTESIAN_POINT ( 'NONE',  ( 1.224646799147353256E-15, 17.99999999999999645, 10.00000000000000000 ) ) ;
#56 = ORIENTED_EDGE ( 'NONE', *, *, #90, .F. ) ;
#57 = CARTESIAN_POINT ( 'NONE',  ( 1.004210375300829280E-15, 18.00000000000000355, 8.199999999999997513 ) ) ;
#58 = DIRECTION ( 'NONE',  ( 0.000000000000000000, 0.000000000000000000, -1.000000000000000000 ) ) ;
#59 = EDGE_LOOP ( 'NONE', ( #227, #147 ) ) ;
#60 = AXIS2_PLACEMENT_3D ( 'NONE', #176, #43, #109 ) ;
#61 = AXIS2_PLACEMENT_3D ( 'NONE', #341, #317, #183 ) ;
#62 = CARTESIAN_POINT ( 'NONE',  ( 0.000000000000000000, 19.99999999999999645, 0.000000000000000000 ) ) ;
#63 = FILL_AREA_STYLE ('',( #249 ) ) ;
#64 = EDGE_CURVE ( 'NONE', #127, #32, #340, .T. ) ;
#65 = DIRECTION ( 'NONE',  ( 0.000000000000000000, 0.000000000000000000, -1.000000000000000000 ) ) ;
#66 = EDGE_LOOP ( 'NONE', ( #141, #163 ) ) ;
#67 = FACE_OUTER_BOUND ( 'NONE', #145, .T. ) ;
#68 = ORIENTED_EDGE ( 'NONE', *, *, #139, .F. ) ;
#69 = EDGE_CURVE ( 'NONE', #86, #305, #174, .T. ) ;
#70 = DIRECTION ( 'NONE',  ( -0.000000000000000000, 1.000000000000000000, -0.000000000000000000 ) ) ;
#71 = EDGE_LOOP ( 'NONE', ( #95, #322, #84, #275 ) ) ;
#72 = DIRECTION ( 'NONE',  ( 0.000000000000000000, -1.000000000000000000, -0.000000000000000000 ) ) ;
#73 = UNCERTAINTY_MEASURE_WITH_UNIT (LENGTH_MEASURE( 1.000000000000000082E-05 ), #277, 'distance_accuracy_value', 'NONE');
#74 = DIRECTION ( 'NONE',  ( 0.000000000000000000, 0.000000000000000000, -1.000000000000000000 ) ) ;
#75 = CIRCLE ( 'NONE', #53, 10.00000000000000000 ) ;
#76 = AXIS2_PLACEMENT_3D ( 'NONE', #342, #319, #81 ) ;
#77 = DIRECTION ( 'NONE',  ( 0.000000000000000000, 0.000000000000000000, -1.000000000000000000 ) ) ;
#78 = EDGE_CURVE ( 'NONE', #278, #192, #226, .T. ) ;
#79 = FACE_OUTER_BOUND ( 'NONE', #190, .T. ) ;
#80 = DIRECTION ( 'NONE',  ( -0.000000000000000000, -1.000000000000000000, -0.000000000000000000 ) ) ;
#81 = DIRECTION ( 'NONE',  ( 0.000000000000000000, 0.000000000000000000, -1.000000000000000000 ) ) ;
#82 = CARTESIAN_POINT ( 'NONE',  ( 0.000000000000000000, -22.66129032258060150, 0.000000000000000000 ) ) ;
#83 = CARTESIAN_POINT ( 'NONE',  ( 0.000000000000000000, -22.66129032258060150, -8.199999999999999289 ) ) ;
#84 = ORIENTED_EDGE ( 'NONE', *, *, #98, .F. ) ;
#85 = DIRECTION ( 'NONE',  ( -0.000000000000000000, -1.000000000000000000, -0.000000000000000000 ) ) ;
#86 = VERTEX_POINT ( 'NONE', #94 ) ;
#87 = CYLINDRICAL_SURFACE ( 'NONE', #197, 10.00000000000000000 ) ;
#88 = VERTEX_POINT ( 'NONE', #203 ) ;
#89 = CARTESIAN_POINT ( 'NONE',  ( 0.000000000000000000, 0.000000000000000000, 0.000000000000000000 ) ) ;
#90 = EDGE_CURVE ( 'NONE', #24, #120, #295, .T. ) ;
#91 = CARTESIAN_POINT ( 'NONE',  ( 0.000000000000000000, -22.66129032258060150, 0.000000000000000000 ) ) ;
#92 = AXIS2_PLACEMENT_3D ( 'NONE', #281, #11, #253 ) ;
#93 = AXIS2_PLACEMENT_3D ( 'NONE', #351, #214, #242 ) ;
#94 = CARTESIAN_POINT ( 'NONE',  ( 3.000384657911016356E-16, 0.000000000000000000, -2.450000000000000622 ) ) ;
#95 = ORIENTED_EDGE ( 'NONE', *, *, #260, .T. ) ;
#96 = PLANE ( 'NONE',  #33 ) ;
#97 = VERTEX_POINT ( 'NONE', #167 ) ;
#98 = EDGE_CURVE ( 'NONE', #121, #88, #333, .T. ) ;
#99 = FACE_OUTER_BOUND ( 'NONE', #66, .T. ) ;
#100 = EDGE_LOOP ( 'NONE', ( #7, #337, #56, #187 ) ) ;
#101 = DIRECTION ( 'NONE',  ( 0.000000000000000000, -0.000000000000000000, 1.000000000000000000 ) ) ;
#102 = PRODUCT ( 'A850 \X2\041d04300442044f0436043d043e0439\X0\ \X2\0430043b044e043c0438043d043804350432044b0439\X0\ \X2\0440043e043b0438043a\X0\ HTD3M-18-15, \X2\00d8\X0\ \X2\04320430043b0430\X0\ 5 \X2\043c043c\X0\', 'A850 \X2\041d04300442044f0436043d043e0439\X0\ \X2\0430043b044e043c0438043d043804350432044b0439\X0\ \X2\0440043e043b0438043a\X0\ HTD3M-18-15, \X2\00d8\X0\ \X2\04320430043b0430\X0\ 5 \X2\043c043c\X0\', '', ( #142 ) ) ;
#103 = DIRECTION ( 'NONE',  ( 0.000000000000000000, 0.000000000000000000, -1.000000000000000000 ) ) ;
#104 = CIRCLE ( 'NONE', #122, 8.199999999999999289 ) ;
#105 = DIRECTION ( 'NONE',  ( 0.000000000000000000, -0.000000000000000000, 1.000000000000000000 ) ) ;
#106 = CYLINDRICAL_SURFACE ( 'NONE', #182, 10.00000000000000000 ) ;
#107 = ADVANCED_FACE ( 'NONE', ( #307, #67 ), #231, .T. ) ;
#108 = CARTESIAN_POINT ( 'NONE',  ( 0.000000000000000000, 2.000000000000001776, 0.000000000000000000 ) ) ;
#109 = DIRECTION ( 'NONE',  ( 0.000000000000000000, 0.000000000000000000, 1.000000000000000000 ) ) ;
#110 = AXIS2_PLACEMENT_3D ( 'NONE', #62, #297, #304 ) ;
#111 = EDGE_LOOP ( 'NONE', ( #222, #272 ) ) ;
#112 = ADVANCED_FACE ( 'NONE', ( #282, #336 ), #96, .T. ) ;
#113 = FACE_OUTER_BOUND ( 'NONE', #328, .T. ) ;
#114 = EDGE_LOOP ( 'NONE', ( #330, #140 ) ) ;
#115 = APPLICATION_CONTEXT ( 'automotive_design' ) ;
#116 =( NAMED_UNIT ( * ) SI_UNIT ( $, .STERADIAN. ) SOLID_ANGLE_UNIT ( ) );
#117 = SURFACE_STYLE_USAGE ( .BOTH. , #357 ) ;
#118 = EDGE_CURVE ( 'NONE', #254, #278, #75, .T. ) ;
#119 =( NAMED_UNIT ( * ) PLANE_ANGLE_UNIT ( ) SI_UNIT ( $, .RADIAN. ) );
#120 = VERTEX_POINT ( 'NONE', #255 ) ;
#121 = VERTEX_POINT ( 'NONE', #10 ) ;
#122 = AXIS2_PLACEMENT_3D ( 'NONE', #108, #234, #77 ) ;
#123 = CARTESIAN_POINT ( 'NONE',  ( 0.000000000000000000, -22.66129032258060150, -10.00000000000000000 ) ) ;
#124 = ORIENTED_EDGE ( 'NONE', *, *, #78, .F. ) ;
#125 = CARTESIAN_POINT ( 'NONE',  ( 0.000000000000000000, 19.99999999999999645, 0.000000000000000000 ) ) ;
#126 = CARTESIAN_POINT ( 'NONE',  ( 0.000000000000000000, 0.000000000000000000, 2.450000000000000622 ) ) ;
#127 = VERTEX_POINT ( 'NONE', #202 ) ;
#128 = AXIS2_PLACEMENT_3D ( 'NONE', #267, #80, #204 ) ;
#129 = CARTESIAN_POINT ( 'NONE',  ( 0.000000000000000000, -22.66129032258060150, -10.00000000000000000 ) ) ;
#130 = ADVANCED_FACE ( 'NONE', ( #313, #99 ), #152, .T. ) ;
#131 = DIRECTION ( 'NONE',  ( 0.000000000000000000, 1.000000000000000000, 0.000000000000000000 ) ) ;
#132 = FACE_BOUND ( 'NONE', #270, .T. ) ;
#133 = CIRCLE ( 'NONE', #268, 10.00000000000000000 ) ;
#134 = VECTOR ( 'NONE', #237, 1000.000000000000000 ) ;
#135 = CARTESIAN_POINT ( 'NONE',  ( 0.000000000000000000, 18.00000000000000355, 0.000000000000000000 ) ) ;
#136 = PLANE ( 'NONE',  #144 ) ;
#137 = DIRECTION ( 'NONE',  ( 0.000000000000000000, 0.000000000000000000, -1.000000000000000000 ) ) ;
#138 = AXIS2_PLACEMENT_3D ( 'NONE', #161, #26, #20 ) ;
#139 = EDGE_CURVE ( 'NONE', #312, #192, #133, .T. ) ;
#140 = ORIENTED_EDGE ( 'NONE', *, *, #354, .T. ) ;
#141 = ORIENTED_EDGE ( 'NONE', *, *, #90, .T. ) ;
#142 = PRODUCT_CONTEXT ( 'NONE', #115, 'mechanical' ) ;
#143 = LINE ( 'NONE', #4, #195 ) ;
#144 = AXIS2_PLACEMENT_3D ( 'NONE', #51, #131, #105 ) ;
#145 = EDGE_LOOP ( 'NONE', ( #166, #293 ) ) ;
#146 = ORIENTED_EDGE ( 'NONE', *, *, #98, .T. ) ;
#147 = ORIENTED_EDGE ( 'NONE', *, *, #271, .F. ) ;
#148 = DIRECTION ( 'NONE',  ( -0.000000000000000000, -1.000000000000000000, -0.000000000000000000 ) ) ;
#149 = AXIS2_PLACEMENT_3D ( 'NONE', #37, #334, #101 ) ;
#150 = ORIENTED_EDGE ( 'NONE', *, *, #276, .F. ) ;
#151 =( NAMED_UNIT ( * ) SI_UNIT ( $, .STERADIAN. ) SOLID_ANGLE_UNIT ( ) );
#152 = PLANE ( 'NONE',  #47 ) ;
#153 = EDGE_LOOP ( 'NONE', ( #252, #29 ) ) ;
#154 = DIRECTION ( 'NONE',  ( -0.000000000000000000, 1.000000000000000000, -0.000000000000000000 ) ) ;
#155 = CYLINDRICAL_SURFACE ( 'NONE', #247, 2.450000000000000622 ) ;
#156 = CARTESIAN_POINT ( 'NONE',  ( 0.000000000000000000, 19.99999999999999645, 0.000000000000000000 ) ) ;
#157 = DIRECTION ( 'NONE',  ( 0.000000000000000000, 0.000000000000000000, -1.000000000000000000 ) ) ;
#158 = DIRECTION ( 'NONE',  ( -0.000000000000000000, -1.000000000000000000, -0.000000000000000000 ) ) ;
#159 = DIRECTION ( 'NONE',  ( 0.000000000000000000, 0.000000000000000000, -1.000000000000000000 ) ) ;
#160 = ADVANCED_FACE ( 'NONE', ( #40 ), #232, .F. ) ;
#161 = CARTESIAN_POINT ( 'NONE',  ( 0.000000000000000000, 0.000000000000000000, 0.000000000000000000 ) ) ;
#162 = DIRECTION ( 'NONE',  ( -0.000000000000000000, -1.000000000000000000, -0.000000000000000000 ) ) ;
#163 = ORIENTED_EDGE ( 'NONE', *, *, #235, .T. ) ;
#164 = ADVANCED_FACE ( 'NONE', ( #79 ), #155, .F. ) ;
#165 = CARTESIAN_POINT ( 'NONE',  ( 0.000000000000000000, 0.000000000000000000, -10.00000000000000000 ) ) ;
#166 = ORIENTED_EDGE ( 'NONE', *, *, #185, .F. ) ;
#167 = CARTESIAN_POINT ( 'NONE',  ( 0.000000000000000000, 18.00000000000000355, -8.199999999999997513 ) ) ;
#168 = ORIENTED_EDGE ( 'NONE', *, *, #294, .T. ) ;
#169 = EDGE_CURVE ( 'NONE', #36, #215, #326, .T. ) ;
#170 =( NAMED_UNIT ( * ) PLANE_ANGLE_UNIT ( ) SI_UNIT ( $, .RADIAN. ) );
#171 = VECTOR ( 'NONE', #154, 1000.000000000000000 ) ;
#172 = ORIENTED_EDGE ( 'NONE', *, *, #185, .T. ) ;
#173 = AXIS2_PLACEMENT_3D ( 'NONE', #135, #207, #345 ) ;
#174 = LINE ( 'NONE', #35, #171 ) ;
#175 = DIRECTION ( 'NONE',  ( -0.000000000000000000, -1.000000000000000000, -0.000000000000000000 ) ) ;
#176 = CARTESIAN_POINT ( 'NONE',  ( 0.000000000000000000, 0.000000000000000000, 0.000000000000000000 ) ) ;
#177 = CIRCLE ( 'NONE', #110, 2.450000000000000622 ) ;
#178 = CYLINDRICAL_SURFACE ( 'NONE', #128, 8.199999999999999289 ) ;
#179 = CARTESIAN_POINT ( 'NONE',  ( 0.000000000000000000, 0.000000000000000000, 0.000000000000000000 ) ) ;
#180 = ADVANCED_FACE ( 'NONE', ( #212 ), #178, .T. ) ;
#181 = DIRECTION ( 'NONE',  ( 0.000000000000000000, 1.000000000000000000, 0.000000000000000000 ) ) ;
#182 = AXIS2_PLACEMENT_3D ( 'NONE', #19, #346, #238 ) ;
#183 = DIRECTION ( 'NONE',  ( 0.000000000000000000, 0.000000000000000000, 1.000000000000000000 ) ) ;
#184 = DIRECTION ( 'NONE',  ( -0.000000000000000000, -1.000000000000000000, -0.000000000000000000 ) ) ;
#185 = EDGE_CURVE ( 'NONE', #278, #254, #327, .T. ) ;
#186 = FACE_OUTER_BOUND ( 'NONE', #52, .T. ) ;
#187 = ORIENTED_EDGE ( 'NONE', *, *, #45, .F. ) ;
#188 = STYLED_ITEM ( 'NONE', ( #220 ), #30 ) ;
#189 = DIRECTION ( 'NONE',  ( 0.000000000000000000, 0.000000000000000000, -1.000000000000000000 ) ) ;
#190 = EDGE_LOOP ( 'NONE', ( #335, #273, #194, #350 ) ) ;
#191 = ADVANCED_FACE ( 'NONE', ( #132, #208 ), #136, .T. ) ;
#192 = VERTEX_POINT ( 'NONE', #264 ) ;
#193 = CARTESIAN_POINT ( 'NONE',  ( 3.000384657911016356E-16, 19.99999999999999645, -2.450000000000000622 ) ) ;
#194 = ORIENTED_EDGE ( 'NONE', *, *, #301, .T. ) ;
#195 = VECTOR ( 'NONE', #311, 1000.000000000000000 ) ;
#196 = ORIENTED_EDGE ( 'NONE', *, *, #78, .T. ) ;
#197 = AXIS2_PLACEMENT_3D ( 'NONE', #356, #213, #248 ) ;
#198 = DIRECTION ( 'NONE',  ( 0.000000000000000000, 0.000000000000000000, -1.000000000000000000 ) ) ;
#199 = AXIS2_PLACEMENT_3D ( 'NONE', #241, #85, #189 ) ;
#200 = ORIENTED_EDGE ( 'NONE', *, *, #265, .F. ) ;
#201 = PRODUCT_RELATED_PRODUCT_CATEGORY ( 'part', '', ( #102 ) ) ;
#202 = CARTESIAN_POINT ( 'NONE',  ( 0.000000000000000000, 0.000000000000000000, 2.450000000000000622 ) ) ;
#203 = CARTESIAN_POINT ( 'NONE',  ( 1.004210375300829477E-15, 2.000000000000001776, 8.199999999999999289 ) ) ;
#204 = DIRECTION ( 'NONE',  ( 0.000000000000000000, 0.000000000000000000, -1.000000000000000000 ) ) ;
#205 = DIRECTION ( 'NONE',  ( -0.000000000000000000, -1.000000000000000000, -0.000000000000000000 ) ) ;
#206 = PRODUCT_DEFINITION ( 'UNKNOWN', '', #263, #329 ) ;
#207 = DIRECTION ( 'NONE',  ( -0.000000000000000000, -1.000000000000000000, -0.000000000000000000 ) ) ;
#208 = FACE_OUTER_BOUND ( 'NONE', #153, .T. ) ;
#209 = MECHANICAL_DESIGN_GEOMETRIC_PRESENTATION_REPRESENTATION (  '', ( #188 ), #320 ) ;
#210 = CIRCLE ( 'NONE', #296, 2.450000000000000622 ) ;
#211 = EDGE_CURVE ( 'NONE', #215, #36, #303, .T. ) ;
#212 = FACE_OUTER_BOUND ( 'NONE', #71, .T. ) ;
#213 = DIRECTION ( 'NONE',  ( -0.000000000000000000, -1.000000000000000000, -0.000000000000000000 ) ) ;
#214 = DIRECTION ( 'NONE',  ( -0.000000000000000000, -1.000000000000000000, -0.000000000000000000 ) ) ;
#215 = VERTEX_POINT ( 'NONE', #14 ) ;
#216 = CIRCLE ( 'NONE', #76, 8.199999999999997513 ) ;
#217 = SHAPE_DEFINITION_REPRESENTATION ( #318, #18 ) ;
#218 = ORIENTED_EDGE ( 'NONE', *, *, #64, .T. ) ;
#219 = APPLICATION_PROTOCOL_DEFINITION ( 'draft international standard', 'automotive_design', 1998, #115 ) ;
#220 = PRESENTATION_STYLE_ASSIGNMENT (( #117 ) ) ;
#221 = DIRECTION ( 'NONE',  ( 1.000000000000000000, 0.000000000000000000, 0.000000000000000000 ) ) ;
#222 = ORIENTED_EDGE ( 'NONE', *, *, #288, .T. ) ;
#223 = EDGE_CURVE ( 'NONE', #32, #305, #210, .T. ) ;
#224 = VECTOR ( 'NONE', #148, 1000.000000000000000 ) ;
#225 = DIRECTION ( 'NONE',  ( -0.000000000000000000, -1.000000000000000000, -0.000000000000000000 ) ) ;
#226 = LINE ( 'NONE', #129, #21 ) ;
#227 = ORIENTED_EDGE ( 'NONE', *, *, #260, .F. ) ;
#228 = DIRECTION ( 'NONE',  ( -0.000000000000000000, -1.000000000000000000, -0.000000000000000000 ) ) ;
#229 = ORIENTED_EDGE ( 'NONE', *, *, #271, .T. ) ;
#230 = EDGE_CURVE ( 'NONE', #36, #120, #344, .T. ) ;
#231 = PLANE ( 'NONE',  #149 ) ;
#232 = CYLINDRICAL_SURFACE ( 'NONE', #60, 2.450000000000000622 ) ;
#233 = CARTESIAN_POINT ( 'NONE',  ( 1.224646799147353256E-15, 19.99999999999999645, 10.00000000000000000 ) ) ;
#234 = DIRECTION ( 'NONE',  ( -0.000000000000000000, -1.000000000000000000, -0.000000000000000000 ) ) ;
#235 = EDGE_CURVE ( 'NONE', #120, #24, #269, .T. ) ;
#236 =( GEOMETRIC_REPRESENTATION_CONTEXT ( 3 ) GLOBAL_UNCERTAINTY_ASSIGNED_CONTEXT ( ( #246 ) ) GLOBAL_UNIT_ASSIGNED_CONTEXT ( ( #292, #119, #116 ) ) REPRESENTATION_CONTEXT ( 'NONE', 'WORKASPACE' ) );
#237 = DIRECTION ( 'NONE',  ( -0.000000000000000000, -1.000000000000000000, -0.000000000000000000 ) ) ;
#238 = DIRECTION ( 'NONE',  ( 0.000000000000000000, 0.000000000000000000, -1.000000000000000000 ) ) ;
#239 = ADVANCED_FACE ( 'NONE', ( #46 ), #106, .T. ) ;
#240 = DIRECTION ( 'NONE',  ( -0.000000000000000000, -1.000000000000000000, -0.000000000000000000 ) ) ;
#241 = CARTESIAN_POINT ( 'NONE',  ( 0.000000000000000000, -22.66129032258060150, 0.000000000000000000 ) ) ;
#242 = DIRECTION ( 'NONE',  ( 0.000000000000000000, 0.000000000000000000, -1.000000000000000000 ) ) ;
#243 = ORIENTED_EDGE ( 'NONE', *, *, #235, .F. ) ;
#244 = ORIENTED_EDGE ( 'NONE', *, *, #223, .T. ) ;
#245 = EDGE_CURVE ( 'NONE', #309, #88, #262, .T. ) ;
#246 = UNCERTAINTY_MEASURE_WITH_UNIT (LENGTH_MEASURE( 1.000000000000000082E-05 ), #292, 'distance_accuracy_value', 'NONE');
#247 = AXIS2_PLACEMENT_3D ( 'NONE', #261, #286, #315 ) ;
#248 = DIRECTION ( 'NONE',  ( 0.000000000000000000, 0.000000000000000000, -1.000000000000000000 ) ) ;
#249 = FILL_AREA_STYLE_COLOUR ( '', #347 ) ;
#250 = ORIENTED_EDGE ( 'NONE', *, *, #38, .F. ) ;
#251 = SURFACE_STYLE_FILL_AREA ( #63 ) ;
#252 = ORIENTED_EDGE ( 'NONE', *, *, #211, .F. ) ;
#253 = DIRECTION ( 'NONE',  ( 0.000000000000000000, 0.000000000000000000, -1.000000000000000000 ) ) ;
#254 = VERTEX_POINT ( 'NONE', #233 ) ;
#255 = CARTESIAN_POINT ( 'NONE',  ( 1.224646799147353256E-15, 0.000000000000000000, 10.00000000000000000 ) ) ;
#256 = ORIENTED_EDGE ( 'NONE', *, *, #230, .F. ) ;
#257 = CARTESIAN_POINT ( 'NONE',  ( 8.199999999999997513, 17.99999999999999645, 0.000000000000000000 ) ) ;
#258 = AXIS2_PLACEMENT_3D ( 'NONE', #82, #184, #291 ) ;
#259 = CARTESIAN_POINT ( 'NONE',  ( 0.000000000000000000, 2.000000000000001776, 0.000000000000000000 ) ) ;
#260 = EDGE_CURVE ( 'NONE', #97, #309, #42, .T. ) ;
#261 = CARTESIAN_POINT ( 'NONE',  ( 0.000000000000000000, 0.000000000000000000, 0.000000000000000000 ) ) ;
#262 = LINE ( 'NONE', #290, #134 ) ;
#263 = PRODUCT_DEFINITION_FORMATION_WITH_SPECIFIED_SOURCE ( 'ANY', '', #102, .NOT_KNOWN. ) ;
#264 = CARTESIAN_POINT ( 'NONE',  ( 0.000000000000000000, 17.99999999999999645, -10.00000000000000000 ) ) ;
#265 = EDGE_CURVE ( 'NONE', #88, #121, #104, .T. ) ;
#266 = CARTESIAN_POINT ( 'NONE',  ( 1.224646799147353256E-15, -22.66129032258060150, 10.00000000000000000 ) ) ;
#267 = CARTESIAN_POINT ( 'NONE',  ( 0.000000000000000000, -22.66129032258060150, 0.000000000000000000 ) ) ;
#268 = AXIS2_PLACEMENT_3D ( 'NONE', #283, #175, #74 ) ;
#269 = CIRCLE ( 'NONE', #22, 10.00000000000000000 ) ;
#270 = EDGE_LOOP ( 'NONE', ( #146, #325 ) ) ;
#271 = EDGE_CURVE ( 'NONE', #309, #97, #216, .T. ) ;
#272 = ORIENTED_EDGE ( 'NONE', *, *, #139, .T. ) ;
#273 = ORIENTED_EDGE ( 'NONE', *, *, #69, .T. ) ;
#274 = PRESENTATION_LAYER_ASSIGNMENT (  '', '', ( #188 ) ) ;
#275 = ORIENTED_EDGE ( 'NONE', *, *, #294, .F. ) ;
#276 = EDGE_CURVE ( 'NONE', #127, #86, #54, .T. ) ;
#277 =( LENGTH_UNIT ( ) NAMED_UNIT ( * ) SI_UNIT ( .MILLI., .METRE. ) );
#278 = VERTEX_POINT ( 'NONE', #289 ) ;
#279 = CARTESIAN_POINT ( 'NONE',  ( 0.000000000000000000, 19.99999999999999645, 2.450000000000000622 ) ) ;
#280 = ORIENTED_EDGE ( 'NONE', *, *, #223, .F. ) ;
#281 = CARTESIAN_POINT ( 'NONE',  ( 0.000000000000000000, 0.000000000000000000, 0.000000000000000000 ) ) ;
#282 = FACE_OUTER_BOUND ( 'NONE', #111, .T. ) ;
#283 = CARTESIAN_POINT ( 'NONE',  ( 0.000000000000000000, 17.99999999999999645, 0.000000000000000000 ) ) ;
#284 = VECTOR ( 'NONE', #205, 1000.000000000000000 ) ;
#285 = ADVANCED_FACE ( 'NONE', ( #48 ), #321, .T. ) ;
#286 = DIRECTION ( 'NONE',  ( -0.000000000000000000, 1.000000000000000000, -0.000000000000000000 ) ) ;
#287 = DIRECTION ( 'NONE',  ( 0.000000000000000000, 0.000000000000000000, 1.000000000000000000 ) ) ;
#288 = EDGE_CURVE ( 'NONE', #192, #312, #34, .T. ) ;
#289 = CARTESIAN_POINT ( 'NONE',  ( 0.000000000000000000, 19.99999999999999645, -10.00000000000000000 ) ) ;
#290 = CARTESIAN_POINT ( 'NONE',  ( 1.004210375300829477E-15, -22.66129032258060150, 8.199999999999999289 ) ) ;
#291 = DIRECTION ( 'NONE',  ( 0.000000000000000000, 0.000000000000000000, -1.000000000000000000 ) ) ;
#292 =( LENGTH_UNIT ( ) NAMED_UNIT ( * ) SI_UNIT ( .MILLI., .METRE. ) );
#293 = ORIENTED_EDGE ( 'NONE', *, *, #118, .F. ) ;
#294 = EDGE_CURVE ( 'NONE', #97, #121, #358, .T. ) ;
#295 = CIRCLE ( 'NONE', #92, 10.00000000000000000 ) ;
#296 = AXIS2_PLACEMENT_3D ( 'NONE', #156, #181, #287 ) ;
#297 = DIRECTION ( 'NONE',  ( 0.000000000000000000, 1.000000000000000000, 0.000000000000000000 ) ) ;
#298 = ORIENTED_EDGE ( 'NONE', *, *, #118, .T. ) ;
#299 = DIRECTION ( 'NONE',  ( -0.000000000000000000, -1.000000000000000000, -0.000000000000000000 ) ) ;
#300 = ORIENTED_EDGE ( 'NONE', *, *, #245, .F. ) ;
#301 = EDGE_CURVE ( 'NONE', #305, #32, #177, .T. ) ;
#302 = EDGE_LOOP ( 'NONE', ( #256, #5, #39, #243 ) ) ;
#303 = CIRCLE ( 'NONE', #9, 10.00000000000000000 ) ;
#304 = DIRECTION ( 'NONE',  ( 0.000000000000000000, 0.000000000000000000, 1.000000000000000000 ) ) ;
#305 = VERTEX_POINT ( 'NONE', #193 ) ;
#306 = EDGE_LOOP ( 'NONE', ( #280, #353 ) ) ;
#307 = FACE_BOUND ( 'NONE', #306, .T. ) ;
#308 = DIRECTION ( 'NONE',  ( -0.000000000000000000, -1.000000000000000000, -0.000000000000000000 ) ) ;
#309 = VERTEX_POINT ( 'NONE', #57 ) ;
#310 = ADVANCED_FACE ( 'NONE', ( #113 ), #324, .T. ) ;
#311 = DIRECTION ( 'NONE',  ( -0.000000000000000000, -1.000000000000000000, -0.000000000000000000 ) ) ;
#312 = VERTEX_POINT ( 'NONE', #55 ) ;
#313 = FACE_BOUND ( 'NONE', #114, .T. ) ;
#314 = DIRECTION ( 'NONE',  ( 0.000000000000000000, -1.000000000000000000, -0.000000000000000000 ) ) ;
#315 = DIRECTION ( 'NONE',  ( 0.000000000000000000, 0.000000000000000000, 1.000000000000000000 ) ) ;
#316 = CARTESIAN_POINT ( 'NONE',  ( 0.000000000000000000, 19.99999999999999645, 0.000000000000000000 ) ) ;
#317 = DIRECTION ( 'NONE',  ( 0.000000000000000000, 1.000000000000000000, 0.000000000000000000 ) ) ;
#318 = PRODUCT_DEFINITION_SHAPE ( 'NONE', 'NONE',  #206 ) ;
#319 = DIRECTION ( 'NONE',  ( -0.000000000000000000, -1.000000000000000000, -0.000000000000000000 ) ) ;
#320 =( GEOMETRIC_REPRESENTATION_CONTEXT ( 3 ) GLOBAL_UNCERTAINTY_ASSIGNED_CONTEXT ( ( #73 ) ) GLOBAL_UNIT_ASSIGNED_CONTEXT ( ( #277, #170, #151 ) ) REPRESENTATION_CONTEXT ( 'NONE', 'WORKASPACE' ) );
#321 = CYLINDRICAL_SURFACE ( 'NONE', #258, 10.00000000000000000 ) ;
#322 = ORIENTED_EDGE ( 'NONE', *, *, #245, .T. ) ;
#323 = ADVANCED_FACE ( 'NONE', ( #186 ), #87, .T. ) ;
#324 = CYLINDRICAL_SURFACE ( 'NONE', #199, 8.199999999999999289 ) ;
#325 = ORIENTED_EDGE ( 'NONE', *, *, #265, .T. ) ;
#326 = CIRCLE ( 'NONE', #13, 10.00000000000000000 ) ;
#327 = CIRCLE ( 'NONE', #49, 10.00000000000000000 ) ;
#328 = EDGE_LOOP ( 'NONE', ( #300, #229, #168, #200 ) ) ;
#329 = PRODUCT_DEFINITION_CONTEXT ( 'detailed design', #352, 'design' ) ;
#330 = ORIENTED_EDGE ( 'NONE', *, *, #276, .T. ) ;
#331 = APPLICATION_PROTOCOL_DEFINITION ( 'draft international standard', 'automotive_design', 1998, #352 ) ;
#332 = FACE_OUTER_BOUND ( 'NONE', #100, .T. ) ;
#333 = CIRCLE ( 'NONE', #8, 8.199999999999999289 ) ;
#334 = DIRECTION ( 'NONE',  ( 0.000000000000000000, 1.000000000000000000, 0.000000000000000000 ) ) ;
#335 = ORIENTED_EDGE ( 'NONE', *, *, #354, .F. ) ;
#336 = FACE_BOUND ( 'NONE', #59, .T. ) ;
#337 = ORIENTED_EDGE ( 'NONE', *, *, #230, .T. ) ;
#338 = DIRECTION ( 'NONE',  ( 0.000000000000000000, 0.000000000000000000, -1.000000000000000000 ) ) ;
#339 = DIRECTION ( 'NONE',  ( 0.000000000000000000, 0.000000000000000000, -1.000000000000000000 ) ) ;
#340 = LINE ( 'NONE', #126, #343 ) ;
#341 = CARTESIAN_POINT ( 'NONE',  ( 0.000000000000000000, 0.000000000000000000, 0.000000000000000000 ) ) ;
#342 = CARTESIAN_POINT ( 'NONE',  ( 0.000000000000000000, 18.00000000000000355, 0.000000000000000000 ) ) ;
#343 = VECTOR ( 'NONE', #70, 1000.000000000000000 ) ;
#344 = LINE ( 'NONE', #266, #284 ) ;
#345 = DIRECTION ( 'NONE',  ( 0.000000000000000000, 0.000000000000000000, -1.000000000000000000 ) ) ;
#346 = DIRECTION ( 'NONE',  ( -0.000000000000000000, -1.000000000000000000, -0.000000000000000000 ) ) ;
#347 = COLOUR_RGB ( '',0.7921568627450980005, 0.8196078431372548767, 0.9333333333333333481 ) ;
#348 = CIRCLE ( 'NONE', #138, 2.450000000000000622 ) ;
#349 = DIRECTION ( 'NONE',  ( 0.000000000000000000, 0.000000000000000000, 1.000000000000000000 ) ) ;
#350 = ORIENTED_EDGE ( 'NONE', *, *, #64, .F. ) ;
#351 = CARTESIAN_POINT ( 'NONE',  ( 0.000000000000000000, 17.99999999999999645, 0.000000000000000000 ) ) ;
#352 = APPLICATION_CONTEXT ( 'automotive_design' ) ;
#353 = ORIENTED_EDGE ( 'NONE', *, *, #301, .F. ) ;
#354 = EDGE_CURVE ( 'NONE', #86, #127, #348, .T. ) ;
#355 = AXIS2_PLACEMENT_3D ( 'NONE', #91, #162, #58 ) ;
#356 = CARTESIAN_POINT ( 'NONE',  ( 0.000000000000000000, -22.66129032258060150, 0.000000000000000000 ) ) ;
#357 = SURFACE_SIDE_STYLE ('',( #251 ) ) ;
#358 = LINE ( 'NONE', #83, #16 ) ;
#359 = CYLINDRICAL_SURFACE ( 'NONE', #355, 10.00000000000000000 ) ;
ENDSEC;
END-ISO-10303-21;
