ISO-10303-21;
HEADER;
FILE_DESCRIPTION (( 'STEP AP214' ),
    '1' );
FILE_NAME ('A853 Íàòÿæíîé àëþìèíèåâûé ðîëèê HTD3M-30-10, O âàëà 8 ìì.STEP',
    '2025-10-27T10:35:07',
    ( '' ),
    ( '' ),
    'SwSTEP 2.0',
    'SolidWorks 2025',
    '' );
FILE_SCHEMA (( 'AUTOMOTIVE_DESIGN' ));
ENDSEC;

DATA;
#1 = CARTESIAN_POINT ( 'NONE',  ( 3.338278570271209104E-31, 13.00000000000000000, 0.000000000000000000 ) ) ;
#2 = CARTESIAN_POINT ( 'NONE',  ( 3.851859888774472582E-31, 15.00000000000000000, 0.000000000000000000 ) ) ;
#3 = ORIENTED_EDGE ( 'NONE', *, *, #176, .T. ) ;
#4 = EDGE_CURVE ( 'NONE', #122, #284, #152, .T. ) ;
#5 = EDGE_LOOP ( 'NONE', ( #268, #309 ) ) ;
#6 = DIRECTION ( 'NONE',  ( 2.567906592516315201E-32, 1.000000000000000000, -0.000000000000000000 ) ) ;
#7 = ORIENTED_EDGE ( 'NONE', *, *, #13, .T. ) ;
#8 = DIRECTION ( 'NONE',  ( 2.567906592516315201E-32, 1.000000000000000000, -0.000000000000000000 ) ) ;
#9 = APPLICATION_CONTEXT ( 'automotive_design' ) ;
#10 = DIRECTION ( 'NONE',  ( -2.567906592516315201E-32, -1.000000000000000000, 0.000000000000000000 ) ) ;
#11 = FACE_OUTER_BOUND ( 'NONE', #50, .T. ) ;
#12 = SURFACE_STYLE_USAGE ( .BOTH. , #352 ) ;
#13 = EDGE_CURVE ( 'NONE', #186, #113, #277, .T. ) ;
#14 = EDGE_LOOP ( 'NONE', ( #197, #132, #174, #202 ) ) ;
#15 = DIRECTION ( 'NONE',  ( 2.567906592516315201E-32, 1.000000000000000000, -0.000000000000000000 ) ) ;
#16 = ORIENTED_EDGE ( 'NONE', *, *, #70, .T. ) ;
#17 = CARTESIAN_POINT ( 'NONE',  ( 16.00000000000000000, 15.00000000000000000, 0.000000000000000000 ) ) ;
#18 = ORIENTED_EDGE ( 'NONE', *, *, #279, .T. ) ;
#19 = CIRCLE ( 'NONE', #228, 4.000000000000000000 ) ;
#20 = VECTOR ( 'NONE', #313, 1000.000000000000000 ) ;
#21 = CARTESIAN_POINT ( 'NONE',  ( 3.851859888774471706E-31, 14.99999999999999822, 0.000000000000000000 ) ) ;
#22 = DIRECTION ( 'NONE',  ( 1.000000000000000000, -2.567906592516315201E-32, 0.000000000000000000 ) ) ;
#23 = CARTESIAN_POINT ( 'NONE',  ( -16.00000000000000000, 4.108650548026105197E-31, 0.000000000000000000 ) ) ;
#24 = PRODUCT_DEFINITION_CONTEXT ( 'detailed design', #271, 'design' ) ;
#25 = DIRECTION ( 'NONE',  ( 2.567906592516315201E-32, 1.000000000000000000, -0.000000000000000000 ) ) ;
#26 = CIRCLE ( 'NONE', #236, 4.000000000000000000 ) ;
#27 = AXIS2_PLACEMENT_3D ( 'NONE', #355, #108, #219 ) ;
#28 = DIRECTION ( 'NONE',  ( 2.567906592516315201E-32, 1.000000000000000000, -0.000000000000000000 ) ) ;
#29 = CARTESIAN_POINT ( 'NONE',  ( 5.135813185032623833E-32, 2.000000000000000000, 0.000000000000000000 ) ) ;
#30 = ORIENTED_EDGE ( 'NONE', *, *, #4, .T. ) ;
#31 = ORIENTED_EDGE ( 'NONE', *, *, #154, .F. ) ;
#32 = CIRCLE ( 'NONE', #82, 16.00000000000000000 ) ;
#33 = ADVANCED_FACE ( 'NONE', ( #257 ), #66, .T. ) ;
#34 = CARTESIAN_POINT ( 'NONE',  ( -8.552847072295026068E-47, 0.000000000000000000, 0.000000000000000000 ) ) ;
#35 = CYLINDRICAL_SURFACE ( 'NONE', #103, 4.000000000000000000 ) ;
#36 = PRODUCT_DEFINITION_SHAPE ( 'NONE', 'NONE',  #44 ) ;
#37 = DIRECTION ( 'NONE',  ( 2.567906592516315201E-32, 1.000000000000000000, -0.000000000000000000 ) ) ;
#38 = DIRECTION ( 'NONE',  ( 2.567906592516315201E-32, 1.000000000000000000, -0.000000000000000000 ) ) ;
#39 = AXIS2_PLACEMENT_3D ( 'NONE', #131, #15, #187 ) ;
#40 = ADVANCED_FACE ( 'NONE', ( #291 ), #35, .F. ) ;
#41 = CARTESIAN_POINT ( 'NONE',  ( 5.135813185032623833E-32, 2.000000000000000000, 0.000000000000000000 ) ) ;
#42 = DIRECTION ( 'NONE',  ( -1.000000000000000000, 0.000000000000000000, 0.000000000000000000 ) ) ;
#43 = VECTOR ( 'NONE', #252, 1000.000000000000000 ) ;
#44 = PRODUCT_DEFINITION ( 'UNKNOWN', '', #229, #24 ) ;
#45 = DIRECTION ( 'NONE',  ( -1.000000000000000000, 2.567906592516315748E-32, 0.000000000000000000 ) ) ;
#46 = ADVANCED_FACE ( 'NONE', ( #321 ), #240, .T. ) ;
#47 = CARTESIAN_POINT ( 'NONE',  ( 3.851859888774472582E-31, 15.00000000000000000, 0.000000000000000000 ) ) ;
#48 = ORIENTED_EDGE ( 'NONE', *, *, #200, .T. ) ;
#49 = CARTESIAN_POINT ( 'NONE',  ( -16.00000000000000000, 2.000000000000000000, 0.000000000000000000 ) ) ;
#50 = EDGE_LOOP ( 'NONE', ( #148, #118 ) ) ;
#51 = STYLED_ITEM ( 'NONE', ( #128 ), #109 ) ;
#52 = DIRECTION ( 'NONE',  ( 2.567906592516315201E-32, 1.000000000000000000, -0.000000000000000000 ) ) ;
#53 = EDGE_CURVE ( 'NONE', #168, #254, #308, .T. ) ;
#54 = DIRECTION ( 'NONE',  ( -2.567906592516315201E-32, -1.000000000000000000, 0.000000000000000000 ) ) ;
#55 = DIRECTION ( 'NONE',  ( -1.000000000000000000, 0.000000000000000000, 0.000000000000000000 ) ) ;
#56 = AXIS2_PLACEMENT_3D ( 'NONE', #67, #38, #180 ) ;
#57 = DIRECTION ( 'NONE',  ( 2.567906592516315201E-32, 1.000000000000000000, -0.000000000000000000 ) ) ;
#58 = AXIS2_PLACEMENT_3D ( 'NONE', #29, #61, #237 ) ;
#59 = EDGE_LOOP ( 'NONE', ( #259, #191 ) ) ;
#60 = ORIENTED_EDGE ( 'NONE', *, *, #176, .F. ) ;
#61 = DIRECTION ( 'NONE',  ( 2.567906592516315201E-32, 1.000000000000000000, -0.000000000000000000 ) ) ;
#62 = ORIENTED_EDGE ( 'NONE', *, *, #279, .F. ) ;
#63 = AXIS2_PLACEMENT_3D ( 'NONE', #41, #155, #211 ) ;
#64 = CARTESIAN_POINT ( 'NONE',  ( 14.00000000000000000, 14.99999999999999822, 1.714505518806294638E-15 ) ) ;
#65 = VECTOR ( 'NONE', #178, 1000.000000000000000 ) ;
#66 = CYLINDRICAL_SURFACE ( 'NONE', #56, 16.00000000000000000 ) ;
#67 = CARTESIAN_POINT ( 'NONE',  ( 3.851859888774471706E-31, 14.99999999999999822, 0.000000000000000000 ) ) ;
#68 = PRODUCT ( 'A853 \X2\041d04300442044f0436043d043e0439\X0\ \X2\0430043b044e043c0438043d043804350432044b0439\X0\ \X2\0440043e043b0438043a\X0\ HTD3M-30-10, \X2\00d8\X0\ \X2\04320430043b0430\X0\ 8 \X2\043c043c\X0\', 'A853 \X2\041d04300442044f0436043d043e0439\X0\ \X2\0430043b044e043c0438043d043804350432044b0439\X0\ \X2\0440043e043b0438043a\X0\ HTD3M-30-10, \X2\00d8\X0\ \X2\04320430043b0430\X0\ 8 \X2\043c043c\X0\', '', ( #149 ) ) ;
#69 = CARTESIAN_POINT ( 'NONE',  ( 5.275315414311002423E-63, 2.054325274013052598E-31, 0.000000000000000000 ) ) ;
#70 = EDGE_CURVE ( 'NONE', #113, #186, #32, .T. ) ;
#71 = CIRCLE ( 'NONE', #143, 4.000000000000000000 ) ;
#72 = DIRECTION ( 'NONE',  ( 2.567906592516315201E-32, 1.000000000000000000, -0.000000000000000000 ) ) ;
#73 = ADVANCED_FACE ( 'NONE', ( #326 ), #242, .T. ) ;
#74 = EDGE_CURVE ( 'NONE', #161, #284, #316, .T. ) ;
#75 = CARTESIAN_POINT ( 'NONE',  ( 16.00000000000000000, -4.108650548026105197E-31, 1.959434878635765131E-15 ) ) ;
#76 = EDGE_LOOP ( 'NONE', ( #182, #189 ) ) ;
#77 = MECHANICAL_DESIGN_GEOMETRIC_PRESENTATION_REPRESENTATION (  '', ( #51 ), #121 ) ;
#78 = VECTOR ( 'NONE', #6, 1000.000000000000000 ) ;
#79 = DIRECTION ( 'NONE',  ( 1.000000000000000000, -2.567906592516315201E-32, 0.000000000000000000 ) ) ;
#80 = CARTESIAN_POINT ( 'NONE',  ( 3.338278570271209104E-31, 13.00000000000000000, 0.000000000000000000 ) ) ;
#81 = DIRECTION ( 'NONE',  ( 2.567906592516315201E-32, 1.000000000000000000, 0.000000000000000000 ) ) ;
#82 = AXIS2_PLACEMENT_3D ( 'NONE', #201, #314, #45 ) ;
#83 = AXIS2_PLACEMENT_3D ( 'NONE', #253, #37, #226 ) ;
#84 = DIRECTION ( 'NONE',  ( 2.567906592516315201E-32, 1.000000000000000000, 0.000000000000000000 ) ) ;
#85 = EDGE_CURVE ( 'NONE', #235, #158, #263, .T. ) ;
#86 = EDGE_CURVE ( 'NONE', #158, #235, #133, .T. ) ;
#87 = LINE ( 'NONE', #358, #221 ) ;
#88 = DIRECTION ( 'NONE',  ( 2.567906592516315201E-32, 1.000000000000000000, 0.000000000000000000 ) ) ;
#89 = ORIENTED_EDGE ( 'NONE', *, *, #85, .F. ) ;
#90 =( NAMED_UNIT ( * ) PLANE_ANGLE_UNIT ( ) SI_UNIT ( $, .RADIAN. ) );
#91 = EDGE_LOOP ( 'NONE', ( #60, #282, #339, #292 ) ) ;
#92 = ORIENTED_EDGE ( 'NONE', *, *, #295, .F. ) ;
#93 = EDGE_LOOP ( 'NONE', ( #342, #30, #215, #311 ) ) ;
#94 = VERTEX_POINT ( 'NONE', #349 ) ;
#95 = AXIS2_PLACEMENT_3D ( 'NONE', #357, #111, #55 ) ;
#96 = PLANE ( 'NONE',  #83 ) ;
#97 = DIRECTION ( 'NONE',  ( -1.000000000000000000, 2.567906592516315748E-32, 0.000000000000000000 ) ) ;
#98 = DIRECTION ( 'NONE',  ( 2.567906592516315201E-32, 1.000000000000000000, -0.000000000000000000 ) ) ;
#99 = DIRECTION ( 'NONE',  ( 2.567906592516315201E-32, 1.000000000000000000, -0.000000000000000000 ) ) ;
#100 = AXIS2_PLACEMENT_3D ( 'NONE', #69, #72, #327 ) ;
#101 = CARTESIAN_POINT ( 'NONE',  ( 4.000000000000000000, 15.00000000000000000, 4.898587196589412829E-16 ) ) ;
#102 = DIRECTION ( 'NONE',  ( -1.000000000000000000, 0.000000000000000000, 0.000000000000000000 ) ) ;
#103 = AXIS2_PLACEMENT_3D ( 'NONE', #239, #345, #97 ) ;
#104 = CIRCLE ( 'NONE', #347, 16.00000000000000000 ) ;
#105 = PLANE ( 'NONE',  #100 ) ;
#106 = ADVANCED_BREP_SHAPE_REPRESENTATION ( 'A853 \X2\041d04300442044f0436043d043e0439\X0\ \X2\0430043b044e043c0438043d043804350432044b0439\X0\ \X2\0440043e043b0438043a\X0\ HTD3M-30-10, \X2\00d8\X0\ \X2\04320430043b0430\X0\ 8 \X2\043c043c\X0\', ( #109, #255 ), #280 ) ;
#107 = DIRECTION ( 'NONE',  ( 2.567906592516315201E-32, 1.000000000000000000, -0.000000000000000000 ) ) ;
#108 = DIRECTION ( 'NONE',  ( 2.567906592516315201E-32, 1.000000000000000000, -0.000000000000000000 ) ) ;
#109 = MANIFOLD_SOLID_BREP ( '\X2\0412044b044004350437\X0\-\X2\0412044b0442044f043d04430442044c\X0\1', #220 ) ;
#110 = CIRCLE ( 'NONE', #238, 4.000000000000000000 ) ;
#111 = DIRECTION ( 'NONE',  ( 2.567906592516315201E-32, 1.000000000000000000, -0.000000000000000000 ) ) ;
#112 = CARTESIAN_POINT ( 'NONE',  ( 16.00000000000000000, 13.00000000000000000, 1.959434878635765131E-15 ) ) ;
#113 = VERTEX_POINT ( 'NONE', #75 ) ;
#114 = ORIENTED_EDGE ( 'NONE', *, *, #218, .F. ) ;
#115 = FACE_BOUND ( 'NONE', #286, .T. ) ;
#116 = ADVANCED_FACE ( 'NONE', ( #210, #11 ), #105, .F. ) ;
#117 = DIRECTION ( 'NONE',  ( 2.567906592516315201E-32, 1.000000000000000000, -0.000000000000000000 ) ) ;
#118 = ORIENTED_EDGE ( 'NONE', *, *, #70, .F. ) ;
#119 = LINE ( 'NONE', #206, #78 ) ;
#120 = ORIENTED_EDGE ( 'NONE', *, *, #179, .T. ) ;
#121 =( GEOMETRIC_REPRESENTATION_CONTEXT ( 3 ) GLOBAL_UNCERTAINTY_ASSIGNED_CONTEXT ( ( #274 ) ) GLOBAL_UNIT_ASSIGNED_CONTEXT ( ( #241, #322, #294 ) ) REPRESENTATION_CONTEXT ( 'NONE', 'WORKASPACE' ) );
#122 = VERTEX_POINT ( 'NONE', #244 ) ;
#123 = EDGE_LOOP ( 'NONE', ( #258, #177, #48, #114 ) ) ;
#124 = CARTESIAN_POINT ( 'NONE',  ( 16.00000000000000000, 2.000000000000000000, 1.959434878635765131E-15 ) ) ;
#125 = CARTESIAN_POINT ( 'NONE',  ( 3.851859888774471706E-31, 14.99999999999999822, 0.000000000000000000 ) ) ;
#126 = ADVANCED_FACE ( 'NONE', ( #153, #296 ), #299, .F. ) ;
#127 = AXIS2_PLACEMENT_3D ( 'NONE', #17, #54, #22 ) ;
#128 = PRESENTATION_STYLE_ASSIGNMENT (( #12 ) ) ;
#129 = SURFACE_STYLE_FILL_AREA ( #245 ) ;
#130 = ORIENTED_EDGE ( 'NONE', *, *, #285, .T. ) ;
#131 = CARTESIAN_POINT ( 'NONE',  ( 5.135813185032623833E-32, 2.000000000000000000, 0.000000000000000000 ) ) ;
#132 = ORIENTED_EDGE ( 'NONE', *, *, #234, .T. ) ;
#133 = CIRCLE ( 'NONE', #287, 16.00000000000000000 ) ;
#134 = CARTESIAN_POINT ( 'NONE',  ( -14.00000000000000000, 14.99999999999999822, 0.000000000000000000 ) ) ;
#135 = CARTESIAN_POINT ( 'NONE',  ( 0.000000000000000000, 0.000000000000000000, 0.000000000000000000 ) ) ;
#136 = CYLINDRICAL_SURFACE ( 'NONE', #95, 16.00000000000000000 ) ;
#137 = AXIS2_PLACEMENT_3D ( 'NONE', #354, #25, #302 ) ;
#138 = FACE_OUTER_BOUND ( 'NONE', #289, .T. ) ;
#139 = ORIENTED_EDGE ( 'NONE', *, *, #234, .F. ) ;
#140 = DIRECTION ( 'NONE',  ( -1.000000000000000000, 0.000000000000000000, 0.000000000000000000 ) ) ;
#141 = DIRECTION ( 'NONE',  ( 1.000000000000000000, 0.000000000000000000, 0.000000000000000000 ) ) ;
#142 = ORIENTED_EDGE ( 'NONE', *, *, #179, .F. ) ;
#143 = AXIS2_PLACEMENT_3D ( 'NONE', #47, #266, #42 ) ;
#144 = VERTEX_POINT ( 'NONE', #101 ) ;
#145 =( NAMED_UNIT ( * ) SI_UNIT ( $, .STERADIAN. ) SOLID_ANGLE_UNIT ( ) );
#146 = DIRECTION ( 'NONE',  ( -1.000000000000000000, 2.567906592516315748E-32, 0.000000000000000000 ) ) ;
#147 = EDGE_CURVE ( 'NONE', #94, #144, #71, .T. ) ;
#148 = ORIENTED_EDGE ( 'NONE', *, *, #13, .F. ) ;
#149 = PRODUCT_CONTEXT ( 'NONE', #9, 'mechanical' ) ;
#150 = AXIS2_PLACEMENT_3D ( 'NONE', #346, #98, #208 ) ;
#151 = VECTOR ( 'NONE', #107, 1000.000000000000000 ) ;
#152 = LINE ( 'NONE', #64, #356 ) ;
#153 = FACE_BOUND ( 'NONE', #328, .T. ) ;
#154 = EDGE_CURVE ( 'NONE', #122, #315, #203, .T. ) ;
#155 = DIRECTION ( 'NONE',  ( 2.567906592516315201E-32, 1.000000000000000000, -0.000000000000000000 ) ) ;
#156 = CARTESIAN_POINT ( 'NONE',  ( 3.851859888774472582E-31, 15.00000000000000000, 0.000000000000000000 ) ) ;
#157 = CIRCLE ( 'NONE', #58, 14.00000000000000000 ) ;
#158 = VERTEX_POINT ( 'NONE', #124 ) ;
#159 = FACE_OUTER_BOUND ( 'NONE', #76, .T. ) ;
#160 = EDGE_CURVE ( 'NONE', #254, #168, #104, .T. ) ;
#161 = VERTEX_POINT ( 'NONE', #184 ) ;
#162 = DIRECTION ( 'NONE',  ( 2.567906592516315201E-32, 1.000000000000000000, -0.000000000000000000 ) ) ;
#163 = ADVANCED_FACE ( 'NONE', ( #267, #159 ), #264, .F. ) ;
#164 = CARTESIAN_POINT ( 'NONE',  ( -4.000000000000000000, 1.027162637006526299E-31, 0.000000000000000000 ) ) ;
#165 = LINE ( 'NONE', #247, #214 ) ;
#166 = FACE_OUTER_BOUND ( 'NONE', #265, .T. ) ;
#167 = CARTESIAN_POINT ( 'NONE',  ( 0.000000000000000000, 0.000000000000000000, 0.000000000000000000 ) ) ;
#168 = VERTEX_POINT ( 'NONE', #304 ) ;
#169 = AXIS2_PLACEMENT_3D ( 'NONE', #2, #117, #231 ) ;
#170 = DIRECTION ( 'NONE',  ( 2.567906592516315201E-32, 1.000000000000000000, -0.000000000000000000 ) ) ;
#171 = ORIENTED_EDGE ( 'NONE', *, *, #320, .F. ) ;
#172 = VERTEX_POINT ( 'NONE', #276 ) ;
#173 = EDGE_CURVE ( 'NONE', #199, #94, #273, .T. ) ;
#174 = ORIENTED_EDGE ( 'NONE', *, *, #317, .T. ) ;
#175 = CARTESIAN_POINT ( 'NONE',  ( 0.000000000000000000, 0.000000000000000000, 0.000000000000000000 ) ) ;
#176 = EDGE_CURVE ( 'NONE', #172, #199, #19, .T. ) ;
#177 = ORIENTED_EDGE ( 'NONE', *, *, #154, .T. ) ;
#178 = DIRECTION ( 'NONE',  ( 2.567906592516315201E-32, 1.000000000000000000, -0.000000000000000000 ) ) ;
#179 = EDGE_CURVE ( 'NONE', #186, #235, #87, .T. ) ;
#180 = DIRECTION ( 'NONE',  ( -1.000000000000000000, 0.000000000000000000, 0.000000000000000000 ) ) ;
#181 = LINE ( 'NONE', #283, #65 ) ;
#182 = ORIENTED_EDGE ( 'NONE', *, *, #53, .T. ) ;
#183 = CARTESIAN_POINT ( 'NONE',  ( 3.338278570271209104E-31, 13.00000000000000000, 0.000000000000000000 ) ) ;
#184 = CARTESIAN_POINT ( 'NONE',  ( -14.00000000000000000, 13.00000000000000000, 0.000000000000000000 ) ) ;
#185 = CIRCLE ( 'NONE', #310, 16.00000000000000000 ) ;
#186 = VERTEX_POINT ( 'NONE', #23 ) ;
#187 = DIRECTION ( 'NONE',  ( -1.000000000000000000, 0.000000000000000000, 0.000000000000000000 ) ) ;
#188 = ADVANCED_FACE ( 'NONE', ( #248 ), #307, .T. ) ;
#189 = ORIENTED_EDGE ( 'NONE', *, *, #160, .T. ) ;
#190 = DIRECTION ( 'NONE',  ( 2.567906592516315201E-32, 1.000000000000000000, -0.000000000000000000 ) ) ;
#191 = ORIENTED_EDGE ( 'NONE', *, *, #86, .T. ) ;
#192 = CARTESIAN_POINT ( 'NONE',  ( 14.00000000000000000, 13.00000000000000000, 1.714505518806294638E-15 ) ) ;
#193 = UNCERTAINTY_MEASURE_WITH_UNIT (LENGTH_MEASURE( 1.000000000000000082E-05 ), #290, 'distance_accuracy_value', 'NONE');
#194 = CARTESIAN_POINT ( 'NONE',  ( 0.000000000000000000, 0.000000000000000000, 0.000000000000000000 ) ) ;
#195 = DIRECTION ( 'NONE',  ( 2.567906592516315201E-32, 1.000000000000000000, -0.000000000000000000 ) ) ;
#196 = DIRECTION ( 'NONE',  ( -1.000000000000000000, 2.567906592516315748E-32, 0.000000000000000000 ) ) ;
#197 = ORIENTED_EDGE ( 'NONE', *, *, #285, .F. ) ;
#198 = PRESENTATION_LAYER_ASSIGNMENT (  '', '', ( #51 ) ) ;
#199 = VERTEX_POINT ( 'NONE', #336 ) ;
#200 = EDGE_CURVE ( 'NONE', #315, #161, #246, .T. ) ;
#201 = CARTESIAN_POINT ( 'NONE',  ( -8.552847072295026068E-47, 0.000000000000000000, 0.000000000000000000 ) ) ;
#202 = ORIENTED_EDGE ( 'NONE', *, *, #160, .F. ) ;
#203 = CIRCLE ( 'NONE', #63, 14.00000000000000000 ) ;
#204 = ORIENTED_EDGE ( 'NONE', *, *, #173, .T. ) ;
#205 = ADVANCED_FACE ( 'NONE', ( #250 ), #269, .T. ) ;
#206 = CARTESIAN_POINT ( 'NONE',  ( 4.000000000000000000, -1.027162637006526299E-31, 4.898587196589412829E-16 ) ) ;
#207 = ORIENTED_EDGE ( 'NONE', *, *, #218, .T. ) ;
#208 = DIRECTION ( 'NONE',  ( -1.000000000000000000, 0.000000000000000000, 0.000000000000000000 ) ) ;
#209 = AXIS2_PLACEMENT_3D ( 'NONE', #125, #213, #260 ) ;
#210 = FACE_BOUND ( 'NONE', #227, .T. ) ;
#211 = DIRECTION ( 'NONE',  ( -1.000000000000000000, 0.000000000000000000, 0.000000000000000000 ) ) ;
#212 = DIRECTION ( 'NONE',  ( 2.567906592516315201E-32, 1.000000000000000000, -0.000000000000000000 ) ) ;
#213 = DIRECTION ( 'NONE',  ( 2.567906592516315201E-32, 1.000000000000000000, -0.000000000000000000 ) ) ;
#214 = VECTOR ( 'NONE', #195, 1000.000000000000000 ) ;
#215 = ORIENTED_EDGE ( 'NONE', *, *, #74, .F. ) ;
#216 = CARTESIAN_POINT ( 'NONE',  ( 16.00000000000000000, 15.00000000000000000, 1.959434878635765131E-15 ) ) ;
#217 = DIRECTION ( 'NONE',  ( -1.000000000000000000, 2.567906592516315748E-32, 0.000000000000000000 ) ) ;
#218 = EDGE_CURVE ( 'NONE', #284, #161, #270, .T. ) ;
#219 = DIRECTION ( 'NONE',  ( -1.000000000000000000, 0.000000000000000000, 0.000000000000000000 ) ) ;
#220 = CLOSED_SHELL ( 'NONE', ( #40, #33, #73, #46, #116, #312, #126, #188, #331, #205, #163, #225 ) ) ;
#221 = VECTOR ( 'NONE', #170, 1000.000000000000000 ) ;
#222 = CARTESIAN_POINT ( 'NONE',  ( -14.00000000000000000, 2.000000000000000000, 0.000000000000000000 ) ) ;
#223 = DIRECTION ( 'NONE',  ( -1.000000000000000000, 2.567906592516315748E-32, 0.000000000000000000 ) ) ;
#224 = ORIENTED_EDGE ( 'NONE', *, *, #86, .F. ) ;
#225 = ADVANCED_FACE ( 'NONE', ( #138 ), #275, .F. ) ;
#226 = DIRECTION ( 'NONE',  ( -1.000000000000000000, 2.567906592516315201E-32, 0.000000000000000000 ) ) ;
#227 = EDGE_LOOP ( 'NONE', ( #18, #3 ) ) ;
#228 = AXIS2_PLACEMENT_3D ( 'NONE', #167, #88, #196 ) ;
#229 = PRODUCT_DEFINITION_FORMATION_WITH_SPECIFIED_SOURCE ( 'ANY', '', #68, .NOT_KNOWN. ) ;
#230 = FACE_OUTER_BOUND ( 'NONE', #359, .T. ) ;
#231 = DIRECTION ( 'NONE',  ( -1.000000000000000000, 0.000000000000000000, 0.000000000000000000 ) ) ;
#232 = DIRECTION ( 'NONE',  ( 0.000000000000000000, 0.000000000000000000, 1.000000000000000000 ) ) ;
#233 = ORIENTED_EDGE ( 'NONE', *, *, #74, .T. ) ;
#234 = EDGE_CURVE ( 'NONE', #278, #256, #185, .T. ) ;
#235 = VERTEX_POINT ( 'NONE', #49 ) ;
#236 = AXIS2_PLACEMENT_3D ( 'NONE', #194, #81, #223 ) ;
#237 = DIRECTION ( 'NONE',  ( -1.000000000000000000, 0.000000000000000000, 0.000000000000000000 ) ) ;
#238 = AXIS2_PLACEMENT_3D ( 'NONE', #334, #84, #305 ) ;
#239 = CARTESIAN_POINT ( 'NONE',  ( 0.000000000000000000, 0.000000000000000000, 0.000000000000000000 ) ) ;
#240 = CYLINDRICAL_SURFACE ( 'NONE', #150, 16.00000000000000000 ) ;
#241 =( LENGTH_UNIT ( ) NAMED_UNIT ( * ) SI_UNIT ( .MILLI., .METRE. ) );
#242 = CYLINDRICAL_SURFACE ( 'NONE', #209, 14.00000000000000000 ) ;
#243 = ORIENTED_EDGE ( 'NONE', *, *, #53, .F. ) ;
#244 = CARTESIAN_POINT ( 'NONE',  ( 14.00000000000000000, 2.000000000000000000, 1.714505518806294638E-15 ) ) ;
#245 = FILL_AREA_STYLE ('',( #300 ) ) ;
#246 = LINE ( 'NONE', #134, #43 ) ;
#247 = CARTESIAN_POINT ( 'NONE',  ( 16.00000000000000000, 14.99999999999999822, 1.959434878635765131E-15 ) ) ;
#248 = FACE_OUTER_BOUND ( 'NONE', #123, .T. ) ;
#249 = AXIS2_PLACEMENT_3D ( 'NONE', #34, #8, #146 ) ;
#250 = FACE_OUTER_BOUND ( 'NONE', #14, .T. ) ;
#251 = ORIENTED_EDGE ( 'NONE', *, *, #147, .T. ) ;
#252 = DIRECTION ( 'NONE',  ( 2.567906592516315201E-32, 1.000000000000000000, -0.000000000000000000 ) ) ;
#253 = CARTESIAN_POINT ( 'NONE',  ( 14.00000000000000000, 13.00000000000000000, 0.000000000000000000 ) ) ;
#254 = VERTEX_POINT ( 'NONE', #216 ) ;
#255 = AXIS2_PLACEMENT_3D ( 'NONE', #175, #232, #141 ) ;
#256 = VERTEX_POINT ( 'NONE', #330 ) ;
#257 = FACE_OUTER_BOUND ( 'NONE', #337, .T. ) ;
#258 = ORIENTED_EDGE ( 'NONE', *, *, #4, .F. ) ;
#259 = ORIENTED_EDGE ( 'NONE', *, *, #85, .T. ) ;
#260 = DIRECTION ( 'NONE',  ( -1.000000000000000000, 0.000000000000000000, 0.000000000000000000 ) ) ;
#261 = DIRECTION ( 'NONE',  ( -1.000000000000000000, 0.000000000000000000, 0.000000000000000000 ) ) ;
#262 = AXIS2_PLACEMENT_3D ( 'NONE', #21, #28, #140 ) ;
#263 = CIRCLE ( 'NONE', #39, 16.00000000000000000 ) ;
#264 = PLANE ( 'NONE',  #127 ) ;
#265 = EDGE_LOOP ( 'NONE', ( #353, #16, #120, #224 ) ) ;
#266 = DIRECTION ( 'NONE',  ( 2.567906592516315201E-32, 1.000000000000000000, 0.000000000000000000 ) ) ;
#267 = FACE_BOUND ( 'NONE', #5, .T. ) ;
#268 = ORIENTED_EDGE ( 'NONE', *, *, #147, .F. ) ;
#269 = CYLINDRICAL_SURFACE ( 'NONE', #137, 16.00000000000000000 ) ;
#270 = CIRCLE ( 'NONE', #298, 14.00000000000000000 ) ;
#271 = APPLICATION_CONTEXT ( 'automotive_design' ) ;
#272 = CIRCLE ( 'NONE', #27, 16.00000000000000000 ) ;
#273 = LINE ( 'NONE', #164, #151 ) ;
#274 = UNCERTAINTY_MEASURE_WITH_UNIT (LENGTH_MEASURE( 1.000000000000000082E-05 ), #241, 'distance_accuracy_value', 'NONE');
#275 = CYLINDRICAL_SURFACE ( 'NONE', #344, 4.000000000000000000 ) ;
#276 = CARTESIAN_POINT ( 'NONE',  ( 4.000000000000000000, -1.027162637006526299E-31, 4.898587196589412829E-16 ) ) ;
#277 = CIRCLE ( 'NONE', #249, 16.00000000000000000 ) ;
#278 = VERTEX_POINT ( 'NONE', #112 ) ;
#279 = EDGE_CURVE ( 'NONE', #199, #172, #26, .T. ) ;
#280 =( GEOMETRIC_REPRESENTATION_CONTEXT ( 3 ) GLOBAL_UNCERTAINTY_ASSIGNED_CONTEXT ( ( #193 ) ) GLOBAL_UNIT_ASSIGNED_CONTEXT ( ( #290, #90, #145 ) ) REPRESENTATION_CONTEXT ( 'NONE', 'WORKASPACE' ) );
#281 = DIRECTION ( 'NONE',  ( -1.000000000000000000, 0.000000000000000000, 0.000000000000000000 ) ) ;
#282 = ORIENTED_EDGE ( 'NONE', *, *, #341, .T. ) ;
#283 = CARTESIAN_POINT ( 'NONE',  ( 16.00000000000000000, 14.99999999999999822, 1.959434878635765131E-15 ) ) ;
#284 = VERTEX_POINT ( 'NONE', #192 ) ;
#285 = EDGE_CURVE ( 'NONE', #278, #254, #165, .T. ) ;
#286 = EDGE_LOOP ( 'NONE', ( #233, #207 ) ) ;
#287 = AXIS2_PLACEMENT_3D ( 'NONE', #348, #212, #261 ) ;
#288 = APPLICATION_PROTOCOL_DEFINITION ( 'draft international standard', 'automotive_design', 1998, #271 ) ;
#289 = EDGE_LOOP ( 'NONE', ( #301, #62, #204, #251 ) ) ;
#290 =( LENGTH_UNIT ( ) NAMED_UNIT ( * ) SI_UNIT ( .MILLI., .METRE. ) );
#291 = FACE_OUTER_BOUND ( 'NONE', #91, .T. ) ;
#292 = ORIENTED_EDGE ( 'NONE', *, *, #173, .F. ) ;
#293 = AXIS2_PLACEMENT_3D ( 'NONE', #351, #10, #79 ) ;
#294 =( NAMED_UNIT ( * ) SI_UNIT ( $, .STERADIAN. ) SOLID_ANGLE_UNIT ( ) );
#295 = EDGE_CURVE ( 'NONE', #256, #278, #272, .T. ) ;
#296 = FACE_OUTER_BOUND ( 'NONE', #59, .T. ) ;
#297 = PRODUCT_RELATED_PRODUCT_CATEGORY ( 'part', '', ( #68 ) ) ;
#298 = AXIS2_PLACEMENT_3D ( 'NONE', #80, #57, #281 ) ;
#299 = PLANE ( 'NONE',  #293 ) ;
#300 = FILL_AREA_STYLE_COLOUR ( '', #329 ) ;
#301 = ORIENTED_EDGE ( 'NONE', *, *, #341, .F. ) ;
#302 = DIRECTION ( 'NONE',  ( -1.000000000000000000, 0.000000000000000000, 0.000000000000000000 ) ) ;
#303 = EDGE_CURVE ( 'NONE', #144, #94, #110, .T. ) ;
#304 = CARTESIAN_POINT ( 'NONE',  ( -16.00000000000000000, 15.00000000000000000, 0.000000000000000000 ) ) ;
#305 = DIRECTION ( 'NONE',  ( -1.000000000000000000, 0.000000000000000000, 0.000000000000000000 ) ) ;
#306 = CARTESIAN_POINT ( 'NONE',  ( -16.00000000000000000, 14.99999999999999822, 0.000000000000000000 ) ) ;
#307 = CYLINDRICAL_SURFACE ( 'NONE', #262, 14.00000000000000000 ) ;
#308 = CIRCLE ( 'NONE', #169, 16.00000000000000000 ) ;
#309 = ORIENTED_EDGE ( 'NONE', *, *, #303, .F. ) ;
#310 = AXIS2_PLACEMENT_3D ( 'NONE', #1, #52, #333 ) ;
#311 = ORIENTED_EDGE ( 'NONE', *, *, #200, .F. ) ;
#312 = ADVANCED_FACE ( 'NONE', ( #166 ), #136, .T. ) ;
#313 = DIRECTION ( 'NONE',  ( 2.567906592516315201E-32, 1.000000000000000000, -0.000000000000000000 ) ) ;
#314 = DIRECTION ( 'NONE',  ( 2.567906592516315201E-32, 1.000000000000000000, -0.000000000000000000 ) ) ;
#315 = VERTEX_POINT ( 'NONE', #222 ) ;
#316 = CIRCLE ( 'NONE', #323, 14.00000000000000000 ) ;
#317 = EDGE_CURVE ( 'NONE', #256, #168, #335, .T. ) ;
#318 = DIRECTION ( 'NONE',  ( 2.567906592516315201E-32, 1.000000000000000000, -0.000000000000000000 ) ) ;
#319 = APPLICATION_PROTOCOL_DEFINITION ( 'draft international standard', 'automotive_design', 1998, #9 ) ;
#320 = EDGE_CURVE ( 'NONE', #315, #122, #157, .T. ) ;
#321 = FACE_OUTER_BOUND ( 'NONE', #350, .T. ) ;
#322 =( NAMED_UNIT ( * ) PLANE_ANGLE_UNIT ( ) SI_UNIT ( $, .RADIAN. ) );
#323 = AXIS2_PLACEMENT_3D ( 'NONE', #183, #99, #324 ) ;
#324 = DIRECTION ( 'NONE',  ( -1.000000000000000000, 0.000000000000000000, 0.000000000000000000 ) ) ;
#325 = EDGE_CURVE ( 'NONE', #113, #158, #181, .T. ) ;
#326 = FACE_OUTER_BOUND ( 'NONE', #93, .T. ) ;
#327 = DIRECTION ( 'NONE',  ( -1.000000000000000000, 2.567906592516315201E-32, 0.000000000000000000 ) ) ;
#328 = EDGE_LOOP ( 'NONE', ( #171, #31 ) ) ;
#329 = COLOUR_RGB ( '',0.7921568627450980005, 0.8196078431372548767, 0.9333333333333333481 ) ;
#330 = CARTESIAN_POINT ( 'NONE',  ( -16.00000000000000000, 13.00000000000000000, 0.000000000000000000 ) ) ;
#331 = ADVANCED_FACE ( 'NONE', ( #230, #115 ), #96, .F. ) ;
#332 = ORIENTED_EDGE ( 'NONE', *, *, #325, .T. ) ;
#333 = DIRECTION ( 'NONE',  ( -1.000000000000000000, 0.000000000000000000, 0.000000000000000000 ) ) ;
#334 = CARTESIAN_POINT ( 'NONE',  ( 3.851859888774472582E-31, 15.00000000000000000, 0.000000000000000000 ) ) ;
#335 = LINE ( 'NONE', #306, #20 ) ;
#336 = CARTESIAN_POINT ( 'NONE',  ( -4.000000000000000000, 1.027162637006526299E-31, 0.000000000000000000 ) ) ;
#337 = EDGE_LOOP ( 'NONE', ( #340, #130, #243, #343 ) ) ;
#338 = SHAPE_DEFINITION_REPRESENTATION ( #36, #106 ) ;
#339 = ORIENTED_EDGE ( 'NONE', *, *, #303, .T. ) ;
#340 = ORIENTED_EDGE ( 'NONE', *, *, #295, .T. ) ;
#341 = EDGE_CURVE ( 'NONE', #172, #144, #119, .T. ) ;
#342 = ORIENTED_EDGE ( 'NONE', *, *, #320, .T. ) ;
#343 = ORIENTED_EDGE ( 'NONE', *, *, #317, .F. ) ;
#344 = AXIS2_PLACEMENT_3D ( 'NONE', #135, #190, #217 ) ;
#345 = DIRECTION ( 'NONE',  ( 2.567906592516315201E-32, 1.000000000000000000, -0.000000000000000000 ) ) ;
#346 = CARTESIAN_POINT ( 'NONE',  ( 3.851859888774471706E-31, 14.99999999999999822, 0.000000000000000000 ) ) ;
#347 = AXIS2_PLACEMENT_3D ( 'NONE', #156, #162, #102 ) ;
#348 = CARTESIAN_POINT ( 'NONE',  ( 5.135813185032623833E-32, 2.000000000000000000, 0.000000000000000000 ) ) ;
#349 = CARTESIAN_POINT ( 'NONE',  ( -4.000000000000000000, 15.00000000000000000, 0.000000000000000000 ) ) ;
#350 = EDGE_LOOP ( 'NONE', ( #7, #332, #89, #142 ) ) ;
#351 = CARTESIAN_POINT ( 'NONE',  ( 16.00000000000000000, 2.000000000000000444, 0.000000000000000000 ) ) ;
#352 = SURFACE_SIDE_STYLE ('',( #129 ) ) ;
#353 = ORIENTED_EDGE ( 'NONE', *, *, #325, .F. ) ;
#354 = CARTESIAN_POINT ( 'NONE',  ( 3.851859888774471706E-31, 14.99999999999999822, 0.000000000000000000 ) ) ;
#355 = CARTESIAN_POINT ( 'NONE',  ( 3.338278570271209104E-31, 13.00000000000000000, 0.000000000000000000 ) ) ;
#356 = VECTOR ( 'NONE', #318, 1000.000000000000000 ) ;
#357 = CARTESIAN_POINT ( 'NONE',  ( 3.851859888774471706E-31, 14.99999999999999822, 0.000000000000000000 ) ) ;
#358 = CARTESIAN_POINT ( 'NONE',  ( -16.00000000000000000, 14.99999999999999822, 0.000000000000000000 ) ) ;
#359 = EDGE_LOOP ( 'NONE', ( #92, #139 ) ) ;
ENDSEC;
END-ISO-10303-21;
