ISO-10303-21;
HEADER;
FILE_DESCRIPTION (( 'STEP AP214' ),
    '1' );
FILE_NAME ('B420 Ïîëèðîâàííûé öèëèíäðè÷åñêèé âàë O 6ìì, L = 550ìì.STEP',
    '2025-07-11T13:30:04',
    ( '' ),
    ( '' ),
    'SwSTEP 2.0',
    'SolidWorks 2025',
    '' );
FILE_SCHEMA (( 'AUTOMOTIVE_DESIGN' ));
ENDSEC;

DATA;
#1 = UNCERTAINTY_MEASURE_WITH_UNIT (LENGTH_MEASURE( 1.000000000000000082E-05 ), #35, 'distance_accuracy_value', 'NONE');
#2 = VECTOR ( 'NONE', #77, 1000.000000000000000 ) ;
#3 =( GEOMETRIC_REPRESENTATION_CONTEXT ( 3 ) GLOBAL_UNCERTAINTY_ASSIGNED_CONTEXT ( ( #1 ) ) GLOBAL_UNIT_ASSIGNED_CONTEXT ( ( #35, #34, #113 ) ) REPRESENTATION_CONTEXT ( 'NONE', 'WORKASPACE' ) );
#4 = VERTEX_POINT ( 'NONE', #122 ) ;
#5 = EDGE_CURVE ( 'NONE', #4, #6, #39, .T. ) ;
#6 = VERTEX_POINT ( 'NONE', #103 ) ;
#7 = DIRECTION ( 'NONE',  ( 0.000000000000000000, 0.000000000000000000, -1.000000000000000000 ) ) ;
#8 = DIRECTION ( 'NONE',  ( -0.000000000000000000, -1.000000000000000000, -0.000000000000000000 ) ) ;
#9 = EDGE_CURVE ( 'NONE', #68, #6, #18, .T. ) ;
#10 = AXIS2_PLACEMENT_3D ( 'NONE', #74, #119, #110 ) ;
#11 = DIRECTION ( 'NONE',  ( -0.000000000000000000, -1.000000000000000000, -0.000000000000000000 ) ) ;
#12 = CARTESIAN_POINT ( 'NONE',  ( 0.000000000000000000, 275.0000000000000000, 0.000000000000000000 ) ) ;
#13 = ORIENTED_EDGE ( 'NONE', *, *, #9, .T. ) ;
#14 = ORIENTED_EDGE ( 'NONE', *, *, #5, .F. ) ;
#15 = DIRECTION ( 'NONE',  ( 0.000000000000000000, 0.000000000000000000, 1.000000000000000000 ) ) ;
#16 = DIRECTION ( 'NONE',  ( 0.000000000000000000, 0.000000000000000000, 1.000000000000000000 ) ) ;
#17 = SURFACE_SIDE_STYLE ('',( #75 ) ) ;
#18 = CIRCLE ( 'NONE', #69, 3.000000000000000444 ) ;
#19 = DIRECTION ( 'NONE',  ( 0.000000000000000000, 1.000000000000000000, 0.000000000000000000 ) ) ;
#20 = DIRECTION ( 'NONE',  ( 0.000000000000000000, 0.000000000000000000, 1.000000000000000000 ) ) ;
#21 = DIRECTION ( 'NONE',  ( 0.000000000000000000, 0.000000000000000000, -1.000000000000000000 ) ) ;
#22 = CARTESIAN_POINT ( 'NONE',  ( 0.000000000000000000, 275.0000000000000000, 0.000000000000000000 ) ) ;
#23 = EDGE_CURVE ( 'NONE', #6, #68, #91, .T. ) ;
#24 = DIRECTION ( 'NONE',  ( 0.000000000000000000, 1.000000000000000000, 0.000000000000000000 ) ) ;
#25 = AXIS2_PLACEMENT_3D ( 'NONE', #38, #8, #21 ) ;
#26 = ADVANCED_FACE ( 'NONE', ( #84 ), #72, .T. ) ;
#27 = ADVANCED_FACE ( 'NONE', ( #121 ), #90, .T. ) ;
#28 = CARTESIAN_POINT ( 'NONE',  ( 0.000000000000000000, 275.0000000000000000, 0.000000000000000000 ) ) ;
#29 = FACE_OUTER_BOUND ( 'NONE', #93, .T. ) ;
#30 = ORIENTED_EDGE ( 'NONE', *, *, #5, .T. ) ;
#31 = DIRECTION ( 'NONE',  ( 0.000000000000000000, 0.000000000000000000, 1.000000000000000000 ) ) ;
#32 = CARTESIAN_POINT ( 'NONE',  ( 0.000000000000000000, -275.0000000000000000, 0.000000000000000000 ) ) ;
#33 = SHAPE_DEFINITION_REPRESENTATION ( #114, #44 ) ;
#34 =( NAMED_UNIT ( * ) PLANE_ANGLE_UNIT ( ) SI_UNIT ( $, .RADIAN. ) );
#35 =( LENGTH_UNIT ( ) NAMED_UNIT ( * ) SI_UNIT ( .MILLI., .METRE. ) );
#36 = AXIS2_PLACEMENT_3D ( 'NONE', #22, #118, #99 ) ;
#37 = PRODUCT_DEFINITION_FORMATION_WITH_SPECIFIED_SOURCE ( 'ANY', '', #78, .NOT_KNOWN. ) ;
#38 = CARTESIAN_POINT ( 'NONE',  ( 0.000000000000000000, 275.0000000000000000, 0.000000000000000000 ) ) ;
#39 = LINE ( 'NONE', #95, #52 ) ;
#40 = ORIENTED_EDGE ( 'NONE', *, *, #80, .T. ) ;
#41 = ADVANCED_FACE ( 'NONE', ( #29 ), #45, .F. ) ;
#42 = FILL_AREA_STYLE ('',( #53 ) ) ;
#43 = COLOUR_RGB ( '',1.000000000000000000, 1.000000000000000000, 1.000000000000000000 ) ;
#44 = ADVANCED_BREP_SHAPE_REPRESENTATION ( 'B420 \X2\041f043e043b04380440043e04320430043d043d044b0439\X0\ \X2\04460438043b0438043d043404400438044704350441043a04380439\X0\ \X2\04320430043b\X0\ \X2\00d8\X0\ 6\X2\043c043c\X0\, L = 550\X2\043c043c\X0\', ( #71, #92 ), #3 ) ;
#45 = PLANE ( 'NONE',  #98 ) ;
#46 = CARTESIAN_POINT ( 'NONE',  ( 0.000000000000000000, 275.0000000000000000, -3.000000000000000444 ) ) ;
#47 = CIRCLE ( 'NONE', #106, 3.000000000000000444 ) ;
#48 =( NAMED_UNIT ( * ) SI_UNIT ( $, .STERADIAN. ) SOLID_ANGLE_UNIT ( ) );
#49 = LINE ( 'NONE', #46, #2 ) ;
#50 = ADVANCED_FACE ( 'NONE', ( #73 ), #81, .T. ) ;
#51 = UNCERTAINTY_MEASURE_WITH_UNIT (LENGTH_MEASURE( 1.000000000000000082E-05 ), #115, 'distance_accuracy_value', 'NONE');
#52 = VECTOR ( 'NONE', #64, 1000.000000000000000 ) ;
#53 = FILL_AREA_STYLE_COLOUR ( '', #43 ) ;
#54 = EDGE_LOOP ( 'NONE', ( #14, #111, #66, #13 ) ) ;
#55 = ORIENTED_EDGE ( 'NONE', *, *, #9, .F. ) ;
#56 = AXIS2_PLACEMENT_3D ( 'NONE', #12, #96, #15 ) ;
#57 = CARTESIAN_POINT ( 'NONE',  ( 0.000000000000000000, 275.0000000000000000, 0.000000000000000000 ) ) ;
#58 = DIRECTION ( 'NONE',  ( 1.000000000000000000, 0.000000000000000000, 0.000000000000000000 ) ) ;
#59 = EDGE_CURVE ( 'NONE', #4, #67, #47, .T. ) ;
#60 = APPLICATION_PROTOCOL_DEFINITION ( 'draft international standard', 'automotive_design', 1998, #94 ) ;
#61 =( GEOMETRIC_REPRESENTATION_CONTEXT ( 3 ) GLOBAL_UNCERTAINTY_ASSIGNED_CONTEXT ( ( #51 ) ) GLOBAL_UNIT_ASSIGNED_CONTEXT ( ( #115, #97, #48 ) ) REPRESENTATION_CONTEXT ( 'NONE', 'WORKASPACE' ) );
#62 = CIRCLE ( 'NONE', #56, 3.000000000000000444 ) ;
#63 = MECHANICAL_DESIGN_GEOMETRIC_PRESENTATION_REPRESENTATION (  '', ( #117 ), #61 ) ;
#64 = DIRECTION ( 'NONE',  ( -0.000000000000000000, -1.000000000000000000, -0.000000000000000000 ) ) ;
#65 = CARTESIAN_POINT ( 'NONE',  ( 0.000000000000000000, 275.0000000000000000, -3.000000000000000444 ) ) ;
#66 = ORIENTED_EDGE ( 'NONE', *, *, #88, .T. ) ;
#67 = VERTEX_POINT ( 'NONE', #65 ) ;
#68 = VERTEX_POINT ( 'NONE', #101 ) ;
#69 = AXIS2_PLACEMENT_3D ( 'NONE', #82, #120, #31 ) ;
#70 = PRODUCT_DEFINITION_CONTEXT ( 'detailed design', #112, 'design' ) ;
#71 = MANIFOLD_SOLID_BREP ( '\X2\0411043e0431044b0448043a0430\X0\-\X2\0412044b0442044f043d04430442044c\X0\1', #105 ) ;
#72 = CYLINDRICAL_SURFACE ( 'NONE', #25, 3.000000000000000444 ) ;
#73 = FACE_OUTER_BOUND ( 'NONE', #109, .T. ) ;
#74 = CARTESIAN_POINT ( 'NONE',  ( 0.000000000000000000, -275.0000000000000000, 0.000000000000000000 ) ) ;
#75 = SURFACE_STYLE_FILL_AREA ( #42 ) ;
#76 = ORIENTED_EDGE ( 'NONE', *, *, #88, .F. ) ;
#77 = DIRECTION ( 'NONE',  ( -0.000000000000000000, -1.000000000000000000, -0.000000000000000000 ) ) ;
#78 = PRODUCT ( 'B420 \X2\041f043e043b04380440043e04320430043d043d044b0439\X0\ \X2\04460438043b0438043d043404400438044704350441043a04380439\X0\ \X2\04320430043b\X0\ \X2\00d8\X0\ 6\X2\043c043c\X0\, L = 550\X2\043c043c\X0\', 'B420 \X2\041f043e043b04380440043e04320430043d043d044b0439\X0\ \X2\04460438043b0438043d043404400438044704350441043a04380439\X0\ \X2\04320430043b\X0\ \X2\00d8\X0\ 6\X2\043c043c\X0\, L = 550\X2\043c043c\X0\', '', ( #86 ) ) ;
#79 = PRESENTATION_LAYER_ASSIGNMENT (  '', '', ( #117 ) ) ;
#80 = EDGE_CURVE ( 'NONE', #67, #4, #62, .T. ) ;
#81 = CYLINDRICAL_SURFACE ( 'NONE', #100, 3.000000000000000444 ) ;
#82 = CARTESIAN_POINT ( 'NONE',  ( 0.000000000000000000, -275.0000000000000000, 0.000000000000000000 ) ) ;
#83 = EDGE_LOOP ( 'NONE', ( #40, #85 ) ) ;
#84 = FACE_OUTER_BOUND ( 'NONE', #54, .T. ) ;
#85 = ORIENTED_EDGE ( 'NONE', *, *, #59, .T. ) ;
#86 = PRODUCT_CONTEXT ( 'NONE', #94, 'mechanical' ) ;
#87 = SURFACE_STYLE_USAGE ( .BOTH. , #17 ) ;
#88 = EDGE_CURVE ( 'NONE', #67, #68, #49, .T. ) ;
#89 = ORIENTED_EDGE ( 'NONE', *, *, #23, .F. ) ;
#90 = PLANE ( 'NONE',  #36 ) ;
#91 = CIRCLE ( 'NONE', #10, 3.000000000000000444 ) ;
#92 = AXIS2_PLACEMENT_3D ( 'NONE', #125, #16, #58 ) ;
#93 = EDGE_LOOP ( 'NONE', ( #55, #89 ) ) ;
#94 = APPLICATION_CONTEXT ( 'automotive_design' ) ;
#95 = CARTESIAN_POINT ( 'NONE',  ( 3.673940397442060361E-16, 275.0000000000000000, 3.000000000000000444 ) ) ;
#96 = DIRECTION ( 'NONE',  ( 0.000000000000000000, 1.000000000000000000, 0.000000000000000000 ) ) ;
#97 =( NAMED_UNIT ( * ) PLANE_ANGLE_UNIT ( ) SI_UNIT ( $, .RADIAN. ) );
#98 = AXIS2_PLACEMENT_3D ( 'NONE', #32, #24, #104 ) ;
#99 = DIRECTION ( 'NONE',  ( 0.000000000000000000, -0.000000000000000000, 1.000000000000000000 ) ) ;
#100 = AXIS2_PLACEMENT_3D ( 'NONE', #57, #11, #7 ) ;
#101 = CARTESIAN_POINT ( 'NONE',  ( 0.000000000000000000, -275.0000000000000000, -3.000000000000000444 ) ) ;
#102 = ORIENTED_EDGE ( 'NONE', *, *, #23, .T. ) ;
#103 = CARTESIAN_POINT ( 'NONE',  ( 3.673940397442060361E-16, -275.0000000000000000, 3.000000000000000444 ) ) ;
#104 = DIRECTION ( 'NONE',  ( 0.000000000000000000, -0.000000000000000000, 1.000000000000000000 ) ) ;
#105 = CLOSED_SHELL ( 'NONE', ( #50, #26, #27, #41 ) ) ;
#106 = AXIS2_PLACEMENT_3D ( 'NONE', #28, #19, #20 ) ;
#107 = PRODUCT_DEFINITION ( 'UNKNOWN', '', #37, #70 ) ;
#108 = ORIENTED_EDGE ( 'NONE', *, *, #59, .F. ) ;
#109 = EDGE_LOOP ( 'NONE', ( #108, #30, #102, #76 ) ) ;
#110 = DIRECTION ( 'NONE',  ( 0.000000000000000000, 0.000000000000000000, 1.000000000000000000 ) ) ;
#111 = ORIENTED_EDGE ( 'NONE', *, *, #80, .F. ) ;
#112 = APPLICATION_CONTEXT ( 'automotive_design' ) ;
#113 =( NAMED_UNIT ( * ) SI_UNIT ( $, .STERADIAN. ) SOLID_ANGLE_UNIT ( ) );
#114 = PRODUCT_DEFINITION_SHAPE ( 'NONE', 'NONE',  #107 ) ;
#115 =( LENGTH_UNIT ( ) NAMED_UNIT ( * ) SI_UNIT ( .MILLI., .METRE. ) );
#116 = PRESENTATION_STYLE_ASSIGNMENT (( #87 ) ) ;
#117 = STYLED_ITEM ( 'NONE', ( #116 ), #71 ) ;
#118 = DIRECTION ( 'NONE',  ( 0.000000000000000000, 1.000000000000000000, 0.000000000000000000 ) ) ;
#119 = DIRECTION ( 'NONE',  ( 0.000000000000000000, 1.000000000000000000, 0.000000000000000000 ) ) ;
#120 = DIRECTION ( 'NONE',  ( 0.000000000000000000, 1.000000000000000000, 0.000000000000000000 ) ) ;
#121 = FACE_OUTER_BOUND ( 'NONE', #83, .T. ) ;
#122 = CARTESIAN_POINT ( 'NONE',  ( 3.673940397442060361E-16, 275.0000000000000000, 3.000000000000000444 ) ) ;
#123 = APPLICATION_PROTOCOL_DEFINITION ( 'draft international standard', 'automotive_design', 1998, #112 ) ;
#124 = PRODUCT_RELATED_PRODUCT_CATEGORY ( 'part', '', ( #78 ) ) ;
#125 = CARTESIAN_POINT ( 'NONE',  ( 0.000000000000000000, 0.000000000000000000, 0.000000000000000000 ) ) ;
ENDSEC;
END-ISO-10303-21;
