ISO-10303-21;
HEADER;
FILE_DESCRIPTION (( 'STEP AP214' ),
    '1' );
FILE_NAME ('B563 Çàãëóøêà êðåïåæíîãî îòâåðñòèÿ ïîä HGHR15 (ñåðàÿ).STEP',
    '2026-01-28T09:28:12',
    ( '' ),
    ( '' ),
    'SwSTEP 2.0',
    'SolidWorks 2026',
    '' );
FILE_SCHEMA (( 'AUTOMOTIVE_DESIGN' ));
ENDSEC;

DATA;
#1 = VERTEX_POINT ( 'NONE', #55 ) ;
#2 = CIRCLE ( 'NONE', #184, 3.250000000000000444 ) ;
#3 = CARTESIAN_POINT ( 'NONE',  ( -1.800000000000000044, 0.000000000000000000, 1.500000000000000000 ) ) ;
#4 = CARTESIAN_POINT ( 'NONE',  ( 0.000000000000000000, 0.000000000000000000, 1.600000000000000089 ) ) ;
#5 = CARTESIAN_POINT ( 'NONE',  ( 0.000000000000000000, 0.000000000000000000, 0.000000000000000000 ) ) ;
#6 = PRODUCT_CONTEXT ( 'NONE', #102, 'mechanical' ) ;
#7 = CIRCLE ( 'NONE', #296, 1.899999999999999911 ) ;
#8 = DIRECTION ( 'NONE',  ( -0.000000000000000000, 0.000000000000000000, 1.000000000000000000 ) ) ;
#9 = PRODUCT_DEFINITION_CONTEXT ( 'detailed design', #116, 'design' ) ;
#10 = CARTESIAN_POINT ( 'NONE',  ( 1.899999999999999911, 0.000000000000000000, 1.600000000000000089 ) ) ;
#11 = ORIENTED_EDGE ( 'NONE', *, *, #172, .T. ) ;
#12 =( LENGTH_UNIT ( ) NAMED_UNIT ( * ) SI_UNIT ( .MILLI., .METRE. ) );
#13 = VECTOR ( 'NONE', #198, 1000.000000000000000 ) ;
#14 = EDGE_LOOP ( 'NONE', ( #176, #121, #24, #290 ) ) ;
#15 = LINE ( 'NONE', #268, #275 ) ;
#16 = ORIENTED_EDGE ( 'NONE', *, *, #131, .F. ) ;
#17 = CARTESIAN_POINT ( 'NONE',  ( 0.000000000000000000, 0.000000000000000000, 1.000000000000000000 ) ) ;
#18 = ORIENTED_EDGE ( 'NONE', *, *, #93, .T. ) ;
#19 = DIRECTION ( 'NONE',  ( -0.000000000000000000, 0.000000000000000000, 1.000000000000000000 ) ) ;
#20 = AXIS2_PLACEMENT_3D ( 'NONE', #48, #227, #76 ) ;
#21 = CARTESIAN_POINT ( 'NONE',  ( -3.150000000000000355, 3.857637417314163182E-16, 1.500000000000000000 ) ) ;
#22 = DIRECTION ( 'NONE',  ( 1.000000000000000000, 0.000000000000000000, 0.000000000000000000 ) ) ;
#23 = ADVANCED_FACE ( 'NONE', ( #287 ), #245, .T. ) ;
#24 = ORIENTED_EDGE ( 'NONE', *, *, #93, .F. ) ;
#25 =( GEOMETRIC_REPRESENTATION_CONTEXT ( 3 ) GLOBAL_UNCERTAINTY_ASSIGNED_CONTEXT ( ( #89 ) ) GLOBAL_UNIT_ASSIGNED_CONTEXT ( ( #12, #305, #219 ) ) REPRESENTATION_CONTEXT ( 'NONE', 'WORKASPACE' ) );
#26 = FACE_OUTER_BOUND ( 'NONE', #142, .T. ) ;
#27 = DIRECTION ( 'NONE',  ( -1.000000000000000000, 0.000000000000000000, 0.000000000000000000 ) ) ;
#28 = EDGE_CURVE ( 'NONE', #269, #308, #195, .T. ) ;
#29 = DIRECTION ( 'NONE',  ( 1.000000000000000000, 0.000000000000000000, 0.000000000000000000 ) ) ;
#30 = AXIS2_PLACEMENT_3D ( 'NONE', #111, #212, #280 ) ;
#31 = DIRECTION ( 'NONE',  ( -0.000000000000000000, 0.000000000000000000, 1.000000000000000000 ) ) ;
#32 = DIRECTION ( 'NONE',  ( 1.000000000000000000, 0.000000000000000000, 0.000000000000000000 ) ) ;
#33 = ADVANCED_FACE ( 'NONE', ( #267 ), #128, .T. ) ;
#34 = CIRCLE ( 'NONE', #60, 3.250000000000000444 ) ;
#35 = ADVANCED_FACE ( 'NONE', ( #225 ), #78, .T. ) ;
#36 = CYLINDRICAL_SURFACE ( 'NONE', #224, 1.800000000000000044 ) ;
#37 = VERTEX_POINT ( 'NONE', #152 ) ;
#38 = DIRECTION ( 'NONE',  ( 1.000000000000000000, 0.000000000000000000, 0.000000000000000000 ) ) ;
#39 = PRESENTATION_LAYER_ASSIGNMENT (  '', '', ( #100 ) ) ;
#40 = VERTEX_POINT ( 'NONE', #205 ) ;
#41 = ADVANCED_BREP_SHAPE_REPRESENTATION ( 'B563 \X2\041704300433043b04430448043a0430\X0\ \X2\043a04400435043f04350436043d043e0433043e\X0\ \X2\043e0442043204350440044104420438044f\X0\ \X2\043f043e0434\X0\ HGHR15 (\X2\0441043504400430044f\X0\)', ( #217, #149 ), #75 ) ;
#42 = FILL_AREA_STYLE_COLOUR ( '', #199 ) ;
#43 = ORIENTED_EDGE ( 'NONE', *, *, #243, .T. ) ;
#44 = CARTESIAN_POINT ( 'NONE',  ( -3.150000000000000355, 3.918869757271530460E-16, 1.600000000000000089 ) ) ;
#45 = AXIS2_PLACEMENT_3D ( 'NONE', #223, #99, #123 ) ;
#46 = ORIENTED_EDGE ( 'NONE', *, *, #278, .T. ) ;
#47 = SURFACE_SIDE_STYLE ('',( #239 ) ) ;
#48 = CARTESIAN_POINT ( 'NONE',  ( 0.000000000000000000, 0.000000000000000000, 1.600000000000000089 ) ) ;
#49 = CIRCLE ( 'NONE', #30, 3.250000000000000444 ) ;
#50 = DIRECTION ( 'NONE',  ( -0.000000000000000000, -0.000000000000000000, -1.000000000000000000 ) ) ;
#51 = DIRECTION ( 'NONE',  ( 1.000000000000000000, 0.000000000000000000, 0.000000000000000000 ) ) ;
#52 = EDGE_CURVE ( 'NONE', #126, #307, #179, .T. ) ;
#53 = DIRECTION ( 'NONE',  ( -0.000000000000000000, -0.000000000000000000, -1.000000000000000000 ) ) ;
#54 = AXIS2_PLACEMENT_3D ( 'NONE', #306, #190, #95 ) ;
#55 = CARTESIAN_POINT ( 'NONE',  ( 1.800000000000000044, 2.204364238465235576E-16, 1.000000000000000000 ) ) ;
#56 = ORIENTED_EDGE ( 'NONE', *, *, #228, .T. ) ;
#57 = PLANE ( 'NONE',  #229 ) ;
#58 = AXIS2_PLACEMENT_3D ( 'NONE', #235, #156, #32 ) ;
#59 = CARTESIAN_POINT ( 'NONE',  ( 3.150000000000000355, 0.000000000000000000, 1.600000000000000089 ) ) ;
#60 = AXIS2_PLACEMENT_3D ( 'NONE', #298, #295, #253 ) ;
#61 = CARTESIAN_POINT ( 'NONE',  ( -3.250000000000000444, 0.000000000000000000, 0.000000000000000000 ) ) ;
#62 = EDGE_LOOP ( 'NONE', ( #207, #203, #197, #170 ) ) ;
#63 = VECTOR ( 'NONE', #109, 1000.000000000000000 ) ;
#64 = DIRECTION ( 'NONE',  ( -0.000000000000000000, 0.000000000000000000, 1.000000000000000000 ) ) ;
#65 = ADVANCED_FACE ( 'NONE', ( #26 ), #80, .T. ) ;
#66 = CARTESIAN_POINT ( 'NONE',  ( 3.250000000000000444, 3.980102097228898231E-16, 1.500000000000000000 ) ) ;
#67 = EDGE_LOOP ( 'NONE', ( #237, #291, #282, #91 ) ) ;
#68 = DIRECTION ( 'NONE',  ( -0.000000000000000000, 0.000000000000000000, 1.000000000000000000 ) ) ;
#69 = DIRECTION ( 'NONE',  ( -0.000000000000000000, -0.000000000000000000, -1.000000000000000000 ) ) ;
#70 = EDGE_CURVE ( 'NONE', #87, #101, #104, .T. ) ;
#71 = ORIENTED_EDGE ( 'NONE', *, *, #301, .T. ) ;
#72 = DIRECTION ( 'NONE',  ( 0.000000000000000000, -1.000000000000000000, 0.000000000000000000 ) ) ;
#73 = CARTESIAN_POINT ( 'NONE',  ( 0.000000000000000000, 0.000000000000000000, 1.600000000000000089 ) ) ;
#74 = ORIENTED_EDGE ( 'NONE', *, *, #186, .F. ) ;
#75 =( GEOMETRIC_REPRESENTATION_CONTEXT ( 3 ) GLOBAL_UNCERTAINTY_ASSIGNED_CONTEXT ( ( #178 ) ) GLOBAL_UNIT_ASSIGNED_CONTEXT ( ( #218, #303, #175 ) ) REPRESENTATION_CONTEXT ( 'NONE', 'WORKASPACE' ) );
#76 = DIRECTION ( 'NONE',  ( -1.000000000000000000, 0.000000000000000000, 0.000000000000000000 ) ) ;
#77 = ADVANCED_FACE ( 'NONE', ( #230 ), #250, .T. ) ;
#78 = PLANE ( 'NONE',  #273 ) ;
#79 = FACE_OUTER_BOUND ( 'NONE', #62, .T. ) ;
#80 = TOROIDAL_SURFACE ( 'NONE', #122, 3.150000000000000355, 0.1000000000000000056 ) ;
#81 = CIRCLE ( 'NONE', #257, 1.800000000000000044 ) ;
#82 = PLANE ( 'NONE',  #299 ) ;
#83 = AXIS2_PLACEMENT_3D ( 'NONE', #283, #241, #265 ) ;
#84 = EDGE_CURVE ( 'NONE', #101, #1, #114, .T. ) ;
#85 = DIRECTION ( 'NONE',  ( 1.000000000000000000, 0.000000000000000000, 0.000000000000000000 ) ) ;
#86 = FACE_OUTER_BOUND ( 'NONE', #14, .T. ) ;
#87 = VERTEX_POINT ( 'NONE', #3 ) ;
#88 = DIRECTION ( 'NONE',  ( -0.000000000000000000, 0.000000000000000000, 1.000000000000000000 ) ) ;
#89 = UNCERTAINTY_MEASURE_WITH_UNIT (LENGTH_MEASURE( 1.000000000000000082E-05 ), #12, 'distance_accuracy_value', 'NONE');
#90 = CARTESIAN_POINT ( 'NONE',  ( 0.000000000000000000, 0.000000000000000000, 1.600000000000000089 ) ) ;
#91 = ORIENTED_EDGE ( 'NONE', *, *, #254, .F. ) ;
#92 = DIRECTION ( 'NONE',  ( 1.000000000000000000, 0.000000000000000000, 0.000000000000000000 ) ) ;
#93 = EDGE_CURVE ( 'NONE', #148, #308, #144, .T. ) ;
#94 = CLOSED_SHELL ( 'NONE', ( #77, #145, #23, #133, #166, #33, #138, #141, #35, #65, #96 ) ) ;
#95 = DIRECTION ( 'NONE',  ( 0.000000000000000000, 0.000000000000000000, -1.000000000000000000 ) ) ;
#96 = ADVANCED_FACE ( 'NONE', ( #132 ), #201, .T. ) ;
#97 = CIRCLE ( 'NONE', #54, 0.1000000000000000472 ) ;
#98 = ORIENTED_EDGE ( 'NONE', *, *, #210, .T. ) ;
#99 = DIRECTION ( 'NONE',  ( 0.000000000000000000, -0.000000000000000000, -1.000000000000000000 ) ) ;
#100 = STYLED_ITEM ( 'NONE', ( #118 ), #217 ) ;
#101 = VERTEX_POINT ( 'NONE', #251 ) ;
#102 = APPLICATION_CONTEXT ( 'automotive_design' ) ;
#103 = ORIENTED_EDGE ( 'NONE', *, *, #84, .T. ) ;
#104 = LINE ( 'NONE', #134, #63 ) ;
#105 = EDGE_CURVE ( 'NONE', #40, #164, #34, .T. ) ;
#106 = ORIENTED_EDGE ( 'NONE', *, *, #151, .T. ) ;
#107 = AXIS2_PLACEMENT_3D ( 'NONE', #154, #231, #113 ) ;
#108 = CARTESIAN_POINT ( 'NONE',  ( 0.000000000000000000, 0.000000000000000000, 1.600000000000000089 ) ) ;
#109 = DIRECTION ( 'NONE',  ( -0.000000000000000000, -0.000000000000000000, -1.000000000000000000 ) ) ;
#110 = PRODUCT_DEFINITION_FORMATION_WITH_SPECIFIED_SOURCE ( 'ANY', '', #135, .NOT_KNOWN. ) ;
#111 = CARTESIAN_POINT ( 'NONE',  ( 0.000000000000000000, 0.000000000000000000, 1.500000000000000000 ) ) ;
#112 = ORIENTED_EDGE ( 'NONE', *, *, #210, .F. ) ;
#113 = DIRECTION ( 'NONE',  ( 1.000000000000000000, 0.000000000000000000, 0.000000000000000000 ) ) ;
#114 = CIRCLE ( 'NONE', #167, 1.800000000000000044 ) ;
#115 = DIRECTION ( 'NONE',  ( -0.000000000000000000, 0.000000000000000000, 1.000000000000000000 ) ) ;
#116 = APPLICATION_CONTEXT ( 'automotive_design' ) ;
#117 = ORIENTED_EDGE ( 'NONE', *, *, #278, .F. ) ;
#118 = PRESENTATION_STYLE_ASSIGNMENT (( #143 ) ) ;
#119 = VECTOR ( 'NONE', #69, 1000.000000000000000 ) ;
#120 = DIRECTION ( 'NONE',  ( 1.000000000000000000, 0.000000000000000000, 0.000000000000000000 ) ) ;
#121 = ORIENTED_EDGE ( 'NONE', *, *, #28, .T. ) ;
#122 = AXIS2_PLACEMENT_3D ( 'NONE', #248, #31, #181 ) ;
#123 = DIRECTION ( 'NONE',  ( 1.000000000000000000, 0.000000000000000000, 0.000000000000000000 ) ) ;
#124 = CARTESIAN_POINT ( 'NONE',  ( 0.000000000000000000, 0.000000000000000000, 1.600000000000000089 ) ) ;
#125 = CARTESIAN_POINT ( 'NONE',  ( 0.000000000000000000, 0.000000000000000000, 1.600000000000000089 ) ) ;
#126 = VERTEX_POINT ( 'NONE', #10 ) ;
#127 = DIRECTION ( 'NONE',  ( 1.224646799147353207E-16, 1.000000000000000000, 0.000000000000000000 ) ) ;
#128 = CYLINDRICAL_SURFACE ( 'NONE', #20, 3.250000000000000444 ) ;
#129 = FACE_OUTER_BOUND ( 'NONE', #153, .T. ) ;
#130 = AXIS2_PLACEMENT_3D ( 'NONE', #159, #188, #272 ) ;
#131 = EDGE_CURVE ( 'NONE', #87, #37, #240, .T. ) ;
#132 = FACE_OUTER_BOUND ( 'NONE', #174, .T. ) ;
#133 = ADVANCED_FACE ( 'NONE', ( #79 ), #249, .F. ) ;
#134 = CARTESIAN_POINT ( 'NONE',  ( -1.800000000000000044, 0.000000000000000000, 1.600000000000000089 ) ) ;
#135 = PRODUCT ( 'B563 \X2\041704300433043b04430448043a0430\X0\ \X2\043a04400435043f04350436043d043e0433043e\X0\ \X2\043e0442043204350440044104420438044f\X0\ \X2\043f043e0434\X0\ HGHR15 (\X2\0441043504400430044f\X0\)', 'B563 \X2\041704300433043b04430448043a0430\X0\ \X2\043a04400435043f04350436043d043e0433043e\X0\ \X2\043e0442043204350440044104420438044f\X0\ \X2\043f043e0434\X0\ HGHR15 (\X2\0441043504400430044f\X0\)', '', ( #6 ) ) ;
#136 = CIRCLE ( 'NONE', #173, 3.150000000000000355 ) ;
#137 = CARTESIAN_POINT ( 'NONE',  ( 0.000000000000000000, 0.000000000000000000, 1.000000000000000000 ) ) ;
#138 = ADVANCED_FACE ( 'NONE', ( #180, #209 ), #57, .T. ) ;
#139 = CARTESIAN_POINT ( 'NONE',  ( -1.899999999999999911, 2.326828918379971365E-16, 1.600000000000000089 ) ) ;
#140 = ORIENTED_EDGE ( 'NONE', *, *, #232, .T. ) ;
#141 = ADVANCED_FACE ( 'NONE', ( #129 ), #82, .F. ) ;
#142 = EDGE_LOOP ( 'NONE', ( #222, #161, #71, #226 ) ) ;
#143 = SURFACE_STYLE_USAGE ( .BOTH. , #47 ) ;
#144 = CIRCLE ( 'NONE', #276, 3.150000000000000355 ) ;
#145 = ADVANCED_FACE ( 'NONE', ( #86 ), #279, .T. ) ;
#146 = DIRECTION ( 'NONE',  ( -0.000000000000000000, 0.000000000000000000, 1.000000000000000000 ) ) ;
#147 = DIRECTION ( 'NONE',  ( -0.000000000000000000, 0.000000000000000000, 1.000000000000000000 ) ) ;
#148 = VERTEX_POINT ( 'NONE', #59 ) ;
#149 = AXIS2_PLACEMENT_3D ( 'NONE', #5, #183, #85 ) ;
#150 = DIRECTION ( 'NONE',  ( -1.000000000000000000, 1.224646799147353454E-16, 0.000000000000000000 ) ) ;
#151 = EDGE_CURVE ( 'NONE', #164, #40, #2, .T. ) ;
#152 = CARTESIAN_POINT ( 'NONE',  ( 1.800000000000000044, 2.204364238465235576E-16, 1.500000000000000000 ) ) ;
#153 = EDGE_LOOP ( 'NONE', ( #202, #289 ) ) ;
#154 = CARTESIAN_POINT ( 'NONE',  ( 0.000000000000000000, 0.000000000000000000, 1.500000000000000000 ) ) ;
#155 = DIRECTION ( 'NONE',  ( 1.000000000000000000, 0.000000000000000000, 0.000000000000000000 ) ) ;
#156 = DIRECTION ( 'NONE',  ( -0.000000000000000000, 0.000000000000000000, 1.000000000000000000 ) ) ;
#157 = FACE_OUTER_BOUND ( 'NONE', #259, .T. ) ;
#158 = CIRCLE ( 'NONE', #189, 0.1000000000000000472 ) ;
#159 = CARTESIAN_POINT ( 'NONE',  ( 0.000000000000000000, 0.000000000000000000, 1.600000000000000089 ) ) ;
#160 = ORIENTED_EDGE ( 'NONE', *, *, #252, .T. ) ;
#161 = ORIENTED_EDGE ( 'NONE', *, *, #243, .F. ) ;
#162 = FILL_AREA_STYLE ('',( #42 ) ) ;
#163 = EDGE_CURVE ( 'NONE', #269, #302, #49, .T. ) ;
#164 = VERTEX_POINT ( 'NONE', #61 ) ;
#165 = DIRECTION ( 'NONE',  ( 0.000000000000000000, -0.000000000000000000, -1.000000000000000000 ) ) ;
#166 = ADVANCED_FACE ( 'NONE', ( #157 ), #36, .F. ) ;
#167 = AXIS2_PLACEMENT_3D ( 'NONE', #137, #300, #155 ) ;
#168 = ORIENTED_EDGE ( 'NONE', *, *, #52, .F. ) ;
#169 = CARTESIAN_POINT ( 'NONE',  ( 3.150000000000000355, 0.000000000000000000, 1.500000000000000000 ) ) ;
#170 = ORIENTED_EDGE ( 'NONE', *, *, #70, .F. ) ;
#171 = PRODUCT_DEFINITION ( 'UNKNOWN', '', #110, #9 ) ;
#172 = EDGE_CURVE ( 'NONE', #307, #87, #288, .T. ) ;
#173 = AXIS2_PLACEMENT_3D ( 'NONE', #125, #147, #92 ) ;
#174 = EDGE_LOOP ( 'NONE', ( #264, #168, #56, #16 ) ) ;
#175 =( NAMED_UNIT ( * ) SI_UNIT ( $, .STERADIAN. ) SOLID_ANGLE_UNIT ( ) );
#176 = ORIENTED_EDGE ( 'NONE', *, *, #163, .F. ) ;
#177 = DIRECTION ( 'NONE',  ( 1.000000000000000000, 0.000000000000000000, 0.000000000000000000 ) ) ;
#178 = UNCERTAINTY_MEASURE_WITH_UNIT (LENGTH_MEASURE( 1.000000000000000082E-05 ), #218, 'distance_accuracy_value', 'NONE');
#179 = CIRCLE ( 'NONE', #256, 1.899999999999999911 ) ;
#180 = FACE_OUTER_BOUND ( 'NONE', #193, .T. ) ;
#181 = DIRECTION ( 'NONE',  ( 1.000000000000000000, 0.000000000000000000, 0.000000000000000000 ) ) ;
#182 = APPLICATION_PROTOCOL_DEFINITION ( 'draft international standard', 'automotive_design', 1998, #116 ) ;
#183 = DIRECTION ( 'NONE',  ( 0.000000000000000000, 0.000000000000000000, 1.000000000000000000 ) ) ;
#184 = AXIS2_PLACEMENT_3D ( 'NONE', #236, #115, #185 ) ;
#185 = DIRECTION ( 'NONE',  ( 1.000000000000000000, 0.000000000000000000, 0.000000000000000000 ) ) ;
#186 = EDGE_CURVE ( 'NONE', #302, #40, #244, .T. ) ;
#187 = APPLICATION_PROTOCOL_DEFINITION ( 'draft international standard', 'automotive_design', 1998, #102 ) ;
#188 = DIRECTION ( 'NONE',  ( -0.000000000000000000, -0.000000000000000000, -1.000000000000000000 ) ) ;
#189 = AXIS2_PLACEMENT_3D ( 'NONE', #169, #72, #286 ) ;
#190 = DIRECTION ( 'NONE',  ( 0.000000000000000000, -1.000000000000000000, 0.000000000000000000 ) ) ;
#191 = EDGE_CURVE ( 'NONE', #37, #1, #15, .T. ) ;
#192 = LINE ( 'NONE', #263, #13 ) ;
#193 = EDGE_LOOP ( 'NONE', ( #18, #140 ) ) ;
#194 = DIRECTION ( 'NONE',  ( 1.000000000000000000, 0.000000000000000000, 0.000000000000000000 ) ) ;
#195 = CIRCLE ( 'NONE', #234, 0.09999999999999982514 ) ;
#196 = CARTESIAN_POINT ( 'NONE',  ( 0.000000000000000000, 0.000000000000000000, 1.500000000000000000 ) ) ;
#197 = ORIENTED_EDGE ( 'NONE', *, *, #84, .F. ) ;
#198 = DIRECTION ( 'NONE',  ( -0.000000000000000000, -0.000000000000000000, -1.000000000000000000 ) ) ;
#199 = COLOUR_RGB ( '',0.7921568627450980005, 0.8196078431372548767, 0.9333333333333333481 ) ;
#200 = PRODUCT_RELATED_PRODUCT_CATEGORY ( 'part', '', ( #135 ) ) ;
#201 = TOROIDAL_SURFACE ( 'NONE', #206, 1.899999999999999911, 0.1000000000000000056 ) ;
#202 = ORIENTED_EDGE ( 'NONE', *, *, #151, .F. ) ;
#203 = ORIENTED_EDGE ( 'NONE', *, *, #191, .T. ) ;
#204 = CIRCLE ( 'NONE', #45, 3.250000000000000444 ) ;
#205 = CARTESIAN_POINT ( 'NONE',  ( 3.250000000000000444, 3.980102097228898231E-16, 0.000000000000000000 ) ) ;
#206 = AXIS2_PLACEMENT_3D ( 'NONE', #233, #88, #177 ) ;
#207 = ORIENTED_EDGE ( 'NONE', *, *, #131, .T. ) ;
#208 = DIRECTION ( 'NONE',  ( 1.000000000000000000, 0.000000000000000000, 0.000000000000000000 ) ) ;
#209 = FACE_BOUND ( 'NONE', #284, .T. ) ;
#210 = EDGE_CURVE ( 'NONE', #1, #101, #292, .T. ) ;
#211 = SHAPE_DEFINITION_REPRESENTATION ( #216, #41 ) ;
#212 = DIRECTION ( 'NONE',  ( 0.000000000000000000, -0.000000000000000000, -1.000000000000000000 ) ) ;
#213 = AXIS2_PLACEMENT_3D ( 'NONE', #17, #68, #120 ) ;
#214 = CARTESIAN_POINT ( 'NONE',  ( 0.000000000000000000, 0.000000000000000000, 1.600000000000000089 ) ) ;
#215 = DIRECTION ( 'NONE',  ( -0.000000000000000000, -0.000000000000000000, -1.000000000000000000 ) ) ;
#216 = PRODUCT_DEFINITION_SHAPE ( 'NONE', 'NONE',  #171 ) ;
#217 = MANIFOLD_SOLID_BREP ( '\X2\0421043a044004430433043b0435043d04380435\X0\1', #94 ) ;
#218 =( LENGTH_UNIT ( ) NAMED_UNIT ( * ) SI_UNIT ( .MILLI., .METRE. ) );
#219 =( NAMED_UNIT ( * ) SI_UNIT ( $, .STERADIAN. ) SOLID_ANGLE_UNIT ( ) );
#220 = CARTESIAN_POINT ( 'NONE',  ( 0.000000000000000000, 0.000000000000000000, 1.000000000000000000 ) ) ;
#221 = CARTESIAN_POINT ( 'NONE',  ( 3.250000000000000444, 3.980102097228898231E-16, 1.600000000000000089 ) ) ;
#222 = ORIENTED_EDGE ( 'NONE', *, *, #28, .F. ) ;
#223 = CARTESIAN_POINT ( 'NONE',  ( 0.000000000000000000, 0.000000000000000000, 1.500000000000000000 ) ) ;
#224 = AXIS2_PLACEMENT_3D ( 'NONE', #214, #215, #261 ) ;
#225 = FACE_OUTER_BOUND ( 'NONE', #242, .T. ) ;
#226 = ORIENTED_EDGE ( 'NONE', *, *, #232, .F. ) ;
#227 = DIRECTION ( 'NONE',  ( -0.000000000000000000, -0.000000000000000000, -1.000000000000000000 ) ) ;
#228 = EDGE_CURVE ( 'NONE', #126, #37, #97, .T. ) ;
#229 = AXIS2_PLACEMENT_3D ( 'NONE', #4, #8, #29 ) ;
#230 = FACE_OUTER_BOUND ( 'NONE', #271, .T. ) ;
#231 = DIRECTION ( 'NONE',  ( -0.000000000000000000, 0.000000000000000000, 1.000000000000000000 ) ) ;
#232 = EDGE_CURVE ( 'NONE', #308, #148, #136, .T. ) ;
#233 = CARTESIAN_POINT ( 'NONE',  ( 0.000000000000000000, 0.000000000000000000, 1.500000000000000000 ) ) ;
#234 = AXIS2_PLACEMENT_3D ( 'NONE', #21, #127, #150 ) ;
#235 = CARTESIAN_POINT ( 'NONE',  ( 0.000000000000000000, 0.000000000000000000, 1.500000000000000000 ) ) ;
#236 = CARTESIAN_POINT ( 'NONE',  ( 0.000000000000000000, 0.000000000000000000, 0.000000000000000000 ) ) ;
#237 = ORIENTED_EDGE ( 'NONE', *, *, #163, .T. ) ;
#238 = ORIENTED_EDGE ( 'NONE', *, *, #191, .F. ) ;
#239 = SURFACE_STYLE_FILL_AREA ( #162 ) ;
#240 = CIRCLE ( 'NONE', #107, 1.800000000000000044 ) ;
#241 = DIRECTION ( 'NONE',  ( 1.224646799147353207E-16, 1.000000000000000000, 0.000000000000000000 ) ) ;
#242 = EDGE_LOOP ( 'NONE', ( #103, #98 ) ) ;
#243 = EDGE_CURVE ( 'NONE', #302, #269, #204, .T. ) ;
#244 = LINE ( 'NONE', #221, #119 ) ;
#245 = CYLINDRICAL_SURFACE ( 'NONE', #281, 3.250000000000000444 ) ;
#246 = ORIENTED_EDGE ( 'NONE', *, *, #252, .F. ) ;
#247 = DIRECTION ( 'NONE',  ( 1.000000000000000000, 0.000000000000000000, 0.000000000000000000 ) ) ;
#248 = CARTESIAN_POINT ( 'NONE',  ( 0.000000000000000000, 0.000000000000000000, 1.500000000000000000 ) ) ;
#249 = CYLINDRICAL_SURFACE ( 'NONE', #130, 1.800000000000000044 ) ;
#250 = TOROIDAL_SURFACE ( 'NONE', #293, 1.899999999999999911, 0.1000000000000000056 ) ;
#251 = CARTESIAN_POINT ( 'NONE',  ( -1.800000000000000044, 0.000000000000000000, 1.000000000000000000 ) ) ;
#252 = EDGE_CURVE ( 'NONE', #37, #87, #81, .T. ) ;
#253 = DIRECTION ( 'NONE',  ( 1.000000000000000000, 0.000000000000000000, 0.000000000000000000 ) ) ;
#254 = EDGE_CURVE ( 'NONE', #269, #164, #192, .T. ) ;
#255 = DIRECTION ( 'NONE',  ( -0.000000000000000000, 0.000000000000000000, 1.000000000000000000 ) ) ;
#256 = AXIS2_PLACEMENT_3D ( 'NONE', #124, #309, #247 ) ;
#257 = AXIS2_PLACEMENT_3D ( 'NONE', #196, #19, #194 ) ;
#258 = CARTESIAN_POINT ( 'NONE',  ( 0.000000000000000000, 0.000000000000000000, 0.000000000000000000 ) ) ;
#259 = EDGE_LOOP ( 'NONE', ( #238, #160, #304, #112 ) ) ;
#260 = MECHANICAL_DESIGN_GEOMETRIC_PRESENTATION_REPRESENTATION (  '', ( #100 ), #25 ) ;
#261 = DIRECTION ( 'NONE',  ( -1.000000000000000000, 0.000000000000000000, 0.000000000000000000 ) ) ;
#262 = ORIENTED_EDGE ( 'NONE', *, *, #52, .T. ) ;
#263 = CARTESIAN_POINT ( 'NONE',  ( -3.250000000000000444, 0.000000000000000000, 1.600000000000000089 ) ) ;
#264 = ORIENTED_EDGE ( 'NONE', *, *, #172, .F. ) ;
#265 = DIRECTION ( 'NONE',  ( -1.000000000000000000, 1.224646799147350742E-16, 0.000000000000000000 ) ) ;
#266 = ORIENTED_EDGE ( 'NONE', *, *, #228, .F. ) ;
#267 = FACE_OUTER_BOUND ( 'NONE', #294, .T. ) ;
#268 = CARTESIAN_POINT ( 'NONE',  ( 1.800000000000000044, 2.204364238465235576E-16, 1.600000000000000089 ) ) ;
#269 = VERTEX_POINT ( 'NONE', #285 ) ;
#270 = ORIENTED_EDGE ( 'NONE', *, *, #254, .T. ) ;
#271 = EDGE_LOOP ( 'NONE', ( #117, #11, #246, #266 ) ) ;
#272 = DIRECTION ( 'NONE',  ( -1.000000000000000000, 0.000000000000000000, 0.000000000000000000 ) ) ;
#273 = AXIS2_PLACEMENT_3D ( 'NONE', #220, #146, #51 ) ;
#274 = CARTESIAN_POINT ( 'NONE',  ( 0.000000000000000000, 0.000000000000000000, 1.500000000000000000 ) ) ;
#275 = VECTOR ( 'NONE', #50, 1000.000000000000000 ) ;
#276 = AXIS2_PLACEMENT_3D ( 'NONE', #108, #255, #208 ) ;
#277 = DIRECTION ( 'NONE',  ( 1.000000000000000000, 0.000000000000000000, 0.000000000000000000 ) ) ;
#278 = EDGE_CURVE ( 'NONE', #307, #126, #7, .T. ) ;
#279 = TOROIDAL_SURFACE ( 'NONE', #58, 3.150000000000000355, 0.1000000000000000056 ) ;
#280 = DIRECTION ( 'NONE',  ( 1.000000000000000000, 0.000000000000000000, 0.000000000000000000 ) ) ;
#281 = AXIS2_PLACEMENT_3D ( 'NONE', #73, #53, #27 ) ;
#282 = ORIENTED_EDGE ( 'NONE', *, *, #105, .T. ) ;
#283 = CARTESIAN_POINT ( 'NONE',  ( -1.899999999999999911, 2.326828918379971365E-16, 1.500000000000000000 ) ) ;
#284 = EDGE_LOOP ( 'NONE', ( #262, #46 ) ) ;
#285 = CARTESIAN_POINT ( 'NONE',  ( -3.250000000000000444, 0.000000000000000000, 1.500000000000000000 ) ) ;
#286 = DIRECTION ( 'NONE',  ( 0.000000000000000000, 0.000000000000000000, -1.000000000000000000 ) ) ;
#287 = FACE_OUTER_BOUND ( 'NONE', #67, .T. ) ;
#288 = CIRCLE ( 'NONE', #83, 0.1000000000000000472 ) ;
#289 = ORIENTED_EDGE ( 'NONE', *, *, #105, .F. ) ;
#290 = ORIENTED_EDGE ( 'NONE', *, *, #301, .F. ) ;
#291 = ORIENTED_EDGE ( 'NONE', *, *, #186, .T. ) ;
#292 = CIRCLE ( 'NONE', #213, 1.800000000000000044 ) ;
#293 = AXIS2_PLACEMENT_3D ( 'NONE', #274, #64, #38 ) ;
#294 = EDGE_LOOP ( 'NONE', ( #74, #43, #270, #106 ) ) ;
#295 = DIRECTION ( 'NONE',  ( -0.000000000000000000, 0.000000000000000000, 1.000000000000000000 ) ) ;
#296 = AXIS2_PLACEMENT_3D ( 'NONE', #90, #165, #22 ) ;
#297 = DIRECTION ( 'NONE',  ( -0.000000000000000000, 0.000000000000000000, 1.000000000000000000 ) ) ;
#298 = CARTESIAN_POINT ( 'NONE',  ( 0.000000000000000000, 0.000000000000000000, 0.000000000000000000 ) ) ;
#299 = AXIS2_PLACEMENT_3D ( 'NONE', #258, #297, #277 ) ;
#300 = DIRECTION ( 'NONE',  ( -0.000000000000000000, 0.000000000000000000, 1.000000000000000000 ) ) ;
#301 = EDGE_CURVE ( 'NONE', #302, #148, #158, .T. ) ;
#302 = VERTEX_POINT ( 'NONE', #66 ) ;
#303 =( NAMED_UNIT ( * ) PLANE_ANGLE_UNIT ( ) SI_UNIT ( $, .RADIAN. ) );
#304 = ORIENTED_EDGE ( 'NONE', *, *, #70, .T. ) ;
#305 =( NAMED_UNIT ( * ) PLANE_ANGLE_UNIT ( ) SI_UNIT ( $, .RADIAN. ) );
#306 = CARTESIAN_POINT ( 'NONE',  ( 1.899999999999999911, 0.000000000000000000, 1.500000000000000000 ) ) ;
#307 = VERTEX_POINT ( 'NONE', #139 ) ;
#308 = VERTEX_POINT ( 'NONE', #44 ) ;
#309 = DIRECTION ( 'NONE',  ( 0.000000000000000000, -0.000000000000000000, -1.000000000000000000 ) ) ;
ENDSEC;
END-ISO-10303-21;
