ISO-10303-21;
HEADER;
FILE_DESCRIPTION (( 'STEP AP214' ),
    '1' );
FILE_NAME ('Ñáîðêà7.STEP',
    '2025-03-28T10:42:58',
    ( '' ),
    ( '' ),
    'SwSTEP 2.0',
    'SolidWorks 2025',
    '' );
FILE_SCHEMA (( 'AUTOMOTIVE_DESIGN' ));
ENDSEC;

DATA;
#1 = DIRECTION ( 'NONE',  ( 1.000000000000000000, 0.000000000000000000, 0.000000000000000000 ) ) ;
#2 = LINE ( 'NONE', #88, #201 ) ;
#3 = EDGE_LOOP ( 'NONE', ( #240, #307, #245, #275 ) ) ;
#4 = PRODUCT_DEFINITION ( 'UNKNOWN', '', #313, #67 ) ;
#5 = ITEM_DEFINED_TRANSFORMATION ( 'NONE', 'NONE', #296,  #297 ) ;
#6 = FACE_BOUND ( 'NONE', #51, .T. ) ;
#7 = PRODUCT_DEFINITION_CONTEXT ( 'detailed design', #263, 'design' ) ;
#8 = CARTESIAN_POINT ( 'NONE',  ( -15.00000000000000000, -15.00000000000000000, 1000.000000000000000 ) ) ;
#9 = FACE_OUTER_BOUND ( 'NONE', #276, .T. ) ;
#10 = CARTESIAN_POINT ( 'NONE',  ( -15.00000000000000000, 15.00000000000000000, 0.000000000000000000 ) ) ;
#11 = VECTOR ( 'NONE', #366, 1000.000000000000000 ) ;
#12 = CARTESIAN_POINT ( 'NONE',  ( -15.00000000000000000, 15.00000000000000000, 1000.000000000000000 ) ) ;
#13 = EDGE_LOOP ( 'NONE', ( #119, #138, #144, #106 ) ) ;
#14 = ADVANCED_FACE ( 'NONE', ( #18 ), #248, .T. ) ;
#15 = ORIENTED_EDGE ( 'NONE', *, *, #293, .F. ) ;
#16 = SHAPE_REPRESENTATION ( '\X2\04210431043e0440043a0430\X0\7', ( #132, #296 ), #101 ) ;
#17 = ADVANCED_FACE ( 'NONE', ( #21 ), #305, .T. ) ;
#18 = FACE_OUTER_BOUND ( 'NONE', #251, .T. ) ;
#19 = DIRECTION ( 'NONE',  ( 1.000000000000000000, 0.000000000000000000, 0.000000000000000000 ) ) ;
#20 = AXIS2_PLACEMENT_3D ( 'NONE', #143, #90, #65 ) ;
#21 = FACE_OUTER_BOUND ( 'NONE', #3, .T. ) ;
#22 = VECTOR ( 'NONE', #160, 1000.000000000000000 ) ;
#23 = AXIS2_PLACEMENT_3D ( 'NONE', #174, #199, #289 ) ;
#24 =( GEOMETRIC_REPRESENTATION_CONTEXT ( 3 ) GLOBAL_UNCERTAINTY_ASSIGNED_CONTEXT ( ( #179 ) ) GLOBAL_UNIT_ASSIGNED_CONTEXT ( ( #326, #66, #208 ) ) REPRESENTATION_CONTEXT ( 'NONE', 'WORKASPACE' ) );
#25 = EDGE_CURVE ( 'NONE', #84, #95, #78, .T. ) ;
#26 = LINE ( 'NONE', #118, #154 ) ;
#27 = ORIENTED_EDGE ( 'NONE', *, *, #272, .T. ) ;
#28 = APPLICATION_CONTEXT ( 'automotive_design' ) ;
#29 = CARTESIAN_POINT ( 'NONE',  ( -15.00000000000000000, -15.00000000000000000, 1000.000000000000000 ) ) ;
#30 = VERTEX_POINT ( 'NONE', #370 ) ;
#31 = DIRECTION ( 'NONE',  ( -0.000000000000000000, -0.000000000000000000, -1.000000000000000000 ) ) ;
#32 = SHAPE_DEFINITION_REPRESENTATION ( #246, #16 ) ;
#33 = DIRECTION ( 'NONE',  ( -0.000000000000000000, -0.000000000000000000, -1.000000000000000000 ) ) ;
#34 = CARTESIAN_POINT ( 'NONE',  ( -13.00000000000000000, -13.00000000000000000, 1000.000000000000000 ) ) ;
#35 = ORIENTED_EDGE ( 'NONE', *, *, #223, .F. ) ;
#36 = VECTOR ( 'NONE', #31, 1000.000000000000000 ) ;
#37 = LINE ( 'NONE', #181, #232 ) ;
#38 = EDGE_CURVE ( 'NONE', #134, #236, #53, .T. ) ;
#39 = AXIS2_PLACEMENT_3D ( 'NONE', #8, #360, #98 ) ;
#40 = DIRECTION ( 'NONE',  ( 1.000000000000000000, 0.000000000000000000, 0.000000000000000000 ) ) ;
#41 = ADVANCED_BREP_SHAPE_REPRESENTATION ( '', ( #332, #297 ), #168 ) ;
#42 = VECTOR ( 'NONE', #137, 1000.000000000000000 ) ;
#43 = DIRECTION ( 'NONE',  ( 1.000000000000000000, 0.000000000000000000, 0.000000000000000000 ) ) ;
#44 = EDGE_LOOP ( 'NONE', ( #270, #255, #312, #316 ) ) ;
#45 = LINE ( 'NONE', #127, #11 ) ;
#46 = ADVANCED_FACE ( 'NONE', ( #306 ), #157, .T. ) ;
#47 = PRESENTATION_STYLE_ASSIGNMENT (( #339 ) ) ;
#48 = CARTESIAN_POINT ( 'NONE',  ( -15.00000000000000000, 15.00000000000000000, 1000.000000000000000 ) ) ;
#49 = ORIENTED_EDGE ( 'NONE', *, *, #338, .F. ) ;
#50 = DIRECTION ( 'NONE',  ( -0.000000000000000000, -1.000000000000000000, -0.000000000000000000 ) ) ;
#51 = EDGE_LOOP ( 'NONE', ( #104, #198, #259, #328 ) ) ;
#52 =( NAMED_UNIT ( * ) PLANE_ANGLE_UNIT ( ) SI_UNIT ( $, .RADIAN. ) );
#53 = LINE ( 'NONE', #102, #22 ) ;
#54 = APPLICATION_PROTOCOL_DEFINITION ( 'draft international standard', 'automotive_design', 1998, #263 ) ;
#55 = CARTESIAN_POINT ( 'NONE',  ( 0.000000000000000000, 0.000000000000000000, 1000.000000000000000 ) ) ;
#56 = ORIENTED_EDGE ( 'NONE', *, *, #25, .F. ) ;
#57 = STYLED_ITEM ( 'NONE', ( #47 ), #41 ) ;
#58 = LINE ( 'NONE', #200, #350 ) ;
#59 = VERTEX_POINT ( 'NONE', #214 ) ;
#60 = CARTESIAN_POINT ( 'NONE',  ( 15.00000000000000000, -15.00000000000000000, 1000.000000000000000 ) ) ;
#61 = ORIENTED_EDGE ( 'NONE', *, *, #241, .F. ) ;
#62 =( NAMED_UNIT ( * ) SI_UNIT ( $, .STERADIAN. ) SOLID_ANGLE_UNIT ( ) );
#63 = DIRECTION ( 'NONE',  ( -1.000000000000000000, 0.000000000000000000, 0.000000000000000000 ) ) ;
#64 = AXIS2_PLACEMENT_3D ( 'NONE', #105, #83, #164 ) ;
#65 = DIRECTION ( 'NONE',  ( -1.000000000000000000, 0.000000000000000000, -0.000000000000000000 ) ) ;
#66 =( NAMED_UNIT ( * ) PLANE_ANGLE_UNIT ( ) SI_UNIT ( $, .RADIAN. ) );
#67 = PRODUCT_DEFINITION_CONTEXT ( 'detailed design', #28, 'design' ) ;
#68 = CARTESIAN_POINT ( 'NONE',  ( -13.00000000000000000, -13.00000000000000000, 0.000000000000000000 ) ) ;
#69 = ORIENTED_EDGE ( 'NONE', *, *, #196, .T. ) ;
#70 = SURFACE_STYLE_FILL_AREA ( #330 ) ;
#71 = ORIENTED_EDGE ( 'NONE', *, *, #151, .F. ) ;
#72 = EDGE_CURVE ( 'NONE', #30, #134, #336, .T. ) ;
#73 = CARTESIAN_POINT ( 'NONE',  ( -13.00000000000000000, -13.00000000000000000, 1000.000000000000000 ) ) ;
#74 = PRESENTATION_LAYER_ASSIGNMENT (  '', '', ( #100 ) ) ;
#75 = DIRECTION ( 'NONE',  ( -0.000000000000000000, -1.000000000000000000, -0.000000000000000000 ) ) ;
#76 = VERTEX_POINT ( 'NONE', #363 ) ;
#77 = AXIS2_PLACEMENT_3D ( 'NONE', #55, #195, #111 ) ;
#78 = LINE ( 'NONE', #278, #187 ) ;
#79 = VECTOR ( 'NONE', #239, 1000.000000000000000 ) ;
#80 = DIRECTION ( 'NONE',  ( 0.000000000000000000, 0.000000000000000000, -1.000000000000000000 ) ) ;
#81 = ADVANCED_FACE ( 'NONE', ( #158 ), #340, .T. ) ;
#82 = CARTESIAN_POINT ( 'NONE',  ( -15.00000000000000000, -15.00000000000000000, 0.000000000000000000 ) ) ;
#83 = DIRECTION ( 'NONE',  ( 0.000000000000000000, 1.000000000000000000, 0.000000000000000000 ) ) ;
#84 = VERTEX_POINT ( 'NONE', #250 ) ;
#85 = CARTESIAN_POINT ( 'NONE',  ( 0.000000000000000000, 0.000000000000000000, 0.000000000000000000 ) ) ;
#86 = CARTESIAN_POINT ( 'NONE',  ( -13.00000000000000000, -13.00000000000000000, 0.000000000000000000 ) ) ;
#87 = CARTESIAN_POINT ( 'NONE',  ( -15.00000000000000000, 15.00000000000000000, 1000.000000000000000 ) ) ;
#88 = CARTESIAN_POINT ( 'NONE',  ( 15.00000000000000000, -15.00000000000000000, 1000.000000000000000 ) ) ;
#89 = AXIS2_PLACEMENT_3D ( 'NONE', #12, #301, #242 ) ;
#90 = DIRECTION ( 'NONE',  ( 0.000000000000000000, 0.000000000000000000, -1.000000000000000000 ) ) ;
#91 = PRODUCT_CONTEXT ( 'NONE', #153, 'mechanical' ) ;
#92 = DIRECTION ( 'NONE',  ( 1.000000000000000000, 0.000000000000000000, 0.000000000000000000 ) ) ;
#93 = CARTESIAN_POINT ( 'NONE',  ( 15.00000000000000000, -15.00000000000000000, 1000.000000000000000 ) ) ;
#94 = EDGE_CURVE ( 'NONE', #236, #59, #218, .T. ) ;
#95 = VERTEX_POINT ( 'NONE', #303 ) ;
#96 = DIRECTION ( 'NONE',  ( -0.000000000000000000, -0.000000000000000000, -1.000000000000000000 ) ) ;
#97 = FILL_AREA_STYLE_COLOUR ( '', #299 ) ;
#98 = DIRECTION ( 'NONE',  ( 0.000000000000000000, -0.000000000000000000, 1.000000000000000000 ) ) ;
#99 = ORIENTED_EDGE ( 'NONE', *, *, #241, .T. ) ;
#100 = STYLED_ITEM ( 'NONE', ( #237 ), #332 ) ;
#101 =( GEOMETRIC_REPRESENTATION_CONTEXT ( 3 ) GLOBAL_UNCERTAINTY_ASSIGNED_CONTEXT ( ( #266 ) ) GLOBAL_UNIT_ASSIGNED_CONTEXT ( ( #372, #202, #62 ) ) REPRESENTATION_CONTEXT ( 'NONE', 'WORKASPACE' ) );
#102 = CARTESIAN_POINT ( 'NONE',  ( -15.00000000000000000, 15.00000000000000000, 1000.000000000000000 ) ) ;
#103 = EDGE_CURVE ( 'NONE', #219, #59, #45, .T. ) ;
#104 = ORIENTED_EDGE ( 'NONE', *, *, #277, .T. ) ;
#105 = CARTESIAN_POINT ( 'NONE',  ( -13.00000000000000000, -13.00000000000000000, 1000.000000000000000 ) ) ;
#106 = ORIENTED_EDGE ( 'NONE', *, *, #124, .T. ) ;
#107 = FACE_OUTER_BOUND ( 'NONE', #44, .T. ) ;
#108 = VECTOR ( 'NONE', #33, 1000.000000000000000 ) ;
#109 =( NAMED_UNIT ( * ) SI_UNIT ( $, .STERADIAN. ) SOLID_ANGLE_UNIT ( ) );
#110 = CARTESIAN_POINT ( 'NONE',  ( -13.00000000000000000, -13.00000000000000000, 1000.000000000000000 ) ) ;
#111 = DIRECTION ( 'NONE',  ( -1.000000000000000000, 0.000000000000000000, -0.000000000000000000 ) ) ;
#112 = LINE ( 'NONE', #204, #193 ) ;
#113 = EDGE_LOOP ( 'NONE', ( #309, #49, #346, #285 ) ) ;
#114 = DIRECTION ( 'NONE',  ( 1.000000000000000000, 0.000000000000000000, 0.000000000000000000 ) ) ;
#115 = CARTESIAN_POINT ( 'NONE',  ( 15.00000000000000000, -15.00000000000000000, 0.000000000000000000 ) ) ;
#116 = ORIENTED_EDGE ( 'NONE', *, *, #72, .F. ) ;
#117 = MECHANICAL_DESIGN_GEOMETRIC_PRESENTATION_REPRESENTATION (  '', ( #100 ), #24 ) ;
#118 = CARTESIAN_POINT ( 'NONE',  ( 13.00000000000000533, -13.00000000000000000, 1000.000000000000000 ) ) ;
#119 = ORIENTED_EDGE ( 'NONE', *, *, #335, .F. ) ;
#120 = ADVANCED_FACE ( 'NONE', ( #107, #177 ), #166, .F. ) ;
#121 = SURFACE_SIDE_STYLE ('',( #70 ) ) ;
#122 = DIRECTION ( 'NONE',  ( -0.000000000000000000, -0.000000000000000000, -1.000000000000000000 ) ) ;
#123 = PLANE ( 'NONE',  #39 ) ;
#124 = EDGE_CURVE ( 'NONE', #171, #84, #315, .T. ) ;
#125 = DIRECTION ( 'NONE',  ( -6.672013369141564231E-17, -1.000000000000000000, 0.000000000000000000 ) ) ;
#126 = ORIENTED_EDGE ( 'NONE', *, *, #196, .F. ) ;
#127 = CARTESIAN_POINT ( 'NONE',  ( -15.00000000000000000, -15.00000000000000000, 1000.000000000000000 ) ) ;
#128 = EDGE_CURVE ( 'NONE', #341, #95, #262, .T. ) ;
#129 = FILL_AREA_STYLE_COLOUR ( '', #355 ) ;
#130 = AXIS2_PLACEMENT_3D ( 'NONE', #192, #19, #80 ) ;
#131 = DIRECTION ( 'NONE',  ( -1.000000000000000000, -0.000000000000000000, -0.000000000000000000 ) ) ;
#132 = AXIS2_PLACEMENT_3D ( 'NONE', #85, #194, #114 ) ;
#133 = VECTOR ( 'NONE', #40, 1000.000000000000000 ) ;
#134 = VERTEX_POINT ( 'NONE', #87 ) ;
#135 = DIRECTION ( 'NONE',  ( 0.000000000000000000, 1.000000000000000000, 0.000000000000000000 ) ) ;
#136 = EDGE_CURVE ( 'NONE', #134, #219, #252, .T. ) ;
#137 = DIRECTION ( 'NONE',  ( 0.000000000000000000, 1.000000000000000000, 0.000000000000000000 ) ) ;
#138 = ORIENTED_EDGE ( 'NONE', *, *, #265, .F. ) ;
#139 = CARTESIAN_POINT ( 'NONE',  ( 996.7539758729768664, 1006.264176258616430, 496.9828658904978056 ) ) ;
#140 = DIRECTION ( 'NONE',  ( 6.672013369141566696E-17, 1.000000000000000000, 0.000000000000000000 ) ) ;
#141 = ORIENTED_EDGE ( 'NONE', *, *, #94, .F. ) ;
#142 = PRODUCT_CONTEXT ( 'NONE', #256, 'mechanical' ) ;
#143 = CARTESIAN_POINT ( 'NONE',  ( 0.000000000000000000, 0.000000000000000000, 0.000000000000000000 ) ) ;
#144 = ORIENTED_EDGE ( 'NONE', *, *, #151, .T. ) ;
#145 = CARTESIAN_POINT ( 'NONE',  ( 13.00000000000000533, -13.00000000000000000, 1000.000000000000000 ) ) ;
#146 = SHAPE_REPRESENTATION ( 'PS30S2 \X2\041f0440043e04440438043b044c\X0\ \X2\0430043b044e043c0438043d043804350432044b0439\X0\, \X2\043a043204300434044004300442\X0\ 30x30x2 (\X2\0410043d\X0\. \X2\044104350440043504310440043e\X0\)_00', ( #297 ), #168 ) ;
#147 = CARTESIAN_POINT ( 'NONE',  ( 15.00000000000000000, -15.00000000000000000, 1000.000000000000000 ) ) ;
#148 = EDGE_LOOP ( 'NONE', ( #35, #190, #61, #71 ) ) ;
#149 = DIRECTION ( 'NONE',  ( -0.000000000000000000, -1.000000000000000000, -0.000000000000000000 ) ) ;
#150 = PRESENTATION_LAYER_ASSIGNMENT (  '', '', ( #57 ) ) ;
#151 = EDGE_CURVE ( 'NONE', #184, #171, #26, .T. ) ;
#152 = LINE ( 'NONE', #73, #314 ) ;
#153 = APPLICATION_CONTEXT ( 'automotive_design' ) ;
#154 = VECTOR ( 'NONE', #140, 1000.000000000000000 ) ;
#155 = CARTESIAN_POINT ( 'NONE',  ( -13.00000000000000000, -13.00000000000000000, 0.000000000000000000 ) ) ;
#156 = DIRECTION ( 'NONE',  ( 1.000000000000000000, 0.000000000000000000, 0.000000000000000000 ) ) ;
#157 = PLANE ( 'NONE',  #333 ) ;
#158 = FACE_OUTER_BOUND ( 'NONE', #113, .T. ) ;
#159 = PRODUCT_DEFINITION_SHAPE ( 'NONE', 'NONE',  #375 ) ;
#160 = DIRECTION ( 'NONE',  ( -0.000000000000000000, -0.000000000000000000, -1.000000000000000000 ) ) ;
#161 = FILL_AREA_STYLE ('',( #129 ) ) ;
#162 = CARTESIAN_POINT ( 'NONE',  ( -13.00000000000000000, 13.00000000000000000, 1000.000000000000000 ) ) ;
#163 = VECTOR ( 'NONE', #75, 1000.000000000000000 ) ;
#164 = DIRECTION ( 'NONE',  ( 0.000000000000000000, -0.000000000000000000, 1.000000000000000000 ) ) ;
#165 = CLOSED_SHELL ( 'NONE', ( #120, #238, #249, #279, #344, #324, #81, #46, #14, #17 ) ) ;
#166 = PLANE ( 'NONE',  #77 ) ;
#167 =( GEOMETRIC_REPRESENTATION_CONTEXT ( 3 ) GLOBAL_UNCERTAINTY_ASSIGNED_CONTEXT ( ( #325 ) ) GLOBAL_UNIT_ASSIGNED_CONTEXT ( ( #191, #52, #220 ) ) REPRESENTATION_CONTEXT ( 'NONE', 'WORKASPACE' ) );
#168 =( GEOMETRIC_REPRESENTATION_CONTEXT ( 3 ) GLOBAL_UNCERTAINTY_ASSIGNED_CONTEXT ( ( #356 ) ) GLOBAL_UNIT_ASSIGNED_CONTEXT ( ( #211, #271, #109 ) ) REPRESENTATION_CONTEXT ( 'NONE', 'WORKASPACE' ) );
#169 = EDGE_CURVE ( 'NONE', #30, #205, #286, .T. ) ;
#170 = CARTESIAN_POINT ( 'NONE',  ( -15.00000000000000000, 15.00000000000000000, 0.000000000000000000 ) ) ;
#171 = VERTEX_POINT ( 'NONE', #349 ) ;
#172 = PRODUCT_DEFINITION_SHAPE ( 'NONE', 'NONE',  #176 ) ;
#173 = CARTESIAN_POINT ( 'NONE',  ( -13.00000000000000000, 13.00000000000000000, 1000.000000000000000 ) ) ;
#174 = CARTESIAN_POINT ( 'NONE',  ( 0.000000000000000000, 0.000000000000000000, 0.000000000000000000 ) ) ;
#175 = DIRECTION ( 'NONE',  ( -0.000000000000000000, -0.000000000000000000, -1.000000000000000000 ) ) ;
#176 = PRODUCT_DEFINITION ( 'UNKNOWN', '', #243, #7 ) ;
#177 = FACE_BOUND ( 'NONE', #148, .T. ) ;
#178 = EDGE_LOOP ( 'NONE', ( #253, #337, #116, #353 ) ) ;
#179 = UNCERTAINTY_MEASURE_WITH_UNIT (LENGTH_MEASURE( 1.000000000000000082E-05 ), #326, 'distance_accuracy_value', 'NONE');
#180 = CARTESIAN_POINT ( 'NONE',  ( 13.00000000000000533, -13.00000000000000000, 0.000000000000000000 ) ) ;
#181 = CARTESIAN_POINT ( 'NONE',  ( -15.00000000000000000, -15.00000000000000000, 1000.000000000000000 ) ) ;
#182 = ORIENTED_EDGE ( 'NONE', *, *, #136, .F. ) ;
#183 = CARTESIAN_POINT ( 'NONE',  ( -13.00000000000000000, 13.00000000000000000, 1000.000000000000000 ) ) ;
#184 = VERTEX_POINT ( 'NONE', #258 ) ;
#185 = VECTOR ( 'NONE', #92, 1000.000000000000000 ) ;
#186 = EDGE_CURVE ( 'NONE', #341, #209, #292, .T. ) ;
#187 = VECTOR ( 'NONE', #362, 1000.000000000000000 ) ;
#188 = ORIENTED_EDGE ( 'NONE', *, *, #203, .F. ) ;
#189 = CARTESIAN_POINT ( 'NONE',  ( 13.00000000000000533, -13.00000000000000000, 1000.000000000000000 ) ) ;
#190 = ORIENTED_EDGE ( 'NONE', *, *, #186, .F. ) ;
#191 =( LENGTH_UNIT ( ) NAMED_UNIT ( * ) SI_UNIT ( .MILLI., .METRE. ) );
#192 = CARTESIAN_POINT ( 'NONE',  ( -13.00000000000000000, -13.00000000000000000, 1000.000000000000000 ) ) ;
#193 = VECTOR ( 'NONE', #320, 1000.000000000000000 ) ;
#194 = DIRECTION ( 'NONE',  ( 0.000000000000000000, 0.000000000000000000, 1.000000000000000000 ) ) ;
#195 = DIRECTION ( 'NONE',  ( 0.000000000000000000, 0.000000000000000000, -1.000000000000000000 ) ) ;
#196 = EDGE_CURVE ( 'NONE', #213, #205, #284, .T. ) ;
#197 = PLANE ( 'NONE',  #20 ) ;
#198 = ORIENTED_EDGE ( 'NONE', *, *, #347, .T. ) ;
#199 = DIRECTION ( 'NONE',  ( 0.000000000000000000, 0.000000000000000000, 1.000000000000000000 ) ) ;
#200 = CARTESIAN_POINT ( 'NONE',  ( -13.00000000000000000, -13.00000000000000000, 1000.000000000000000 ) ) ;
#201 = VECTOR ( 'NONE', #135, 1000.000000000000000 ) ;
#202 =( NAMED_UNIT ( * ) PLANE_ANGLE_UNIT ( ) SI_UNIT ( $, .RADIAN. ) );
#203 = EDGE_CURVE ( 'NONE', #321, #30, #2, .T. ) ;
#204 = CARTESIAN_POINT ( 'NONE',  ( -13.00000000000000000, 13.00000000000000000, 1000.000000000000000 ) ) ;
#205 = VERTEX_POINT ( 'NONE', #227 ) ;
#206 = VECTOR ( 'NONE', #261, 1000.000000000000000 ) ;
#207 = LINE ( 'NONE', #86, #163 ) ;
#208 =( NAMED_UNIT ( * ) SI_UNIT ( $, .STERADIAN. ) SOLID_ANGLE_UNIT ( ) );
#209 = VERTEX_POINT ( 'NONE', #34 ) ;
#210 = FACE_OUTER_BOUND ( 'NONE', #234, .T. ) ;
#211 =( LENGTH_UNIT ( ) NAMED_UNIT ( * ) SI_UNIT ( .MILLI., .METRE. ) );
#212 = VECTOR ( 'NONE', #122, 1000.000000000000000 ) ;
#213 = VERTEX_POINT ( 'NONE', #115 ) ;
#214 = CARTESIAN_POINT ( 'NONE',  ( -15.00000000000000000, -15.00000000000000000, 0.000000000000000000 ) ) ;
#215 = AXIS2_PLACEMENT_3D ( 'NONE', #162, #125, #281 ) ;
#216 = AXIS2_PLACEMENT_3D ( 'NONE', #359, #269, #298 ) ;
#217 = DIRECTION ( 'NONE',  ( -6.672013369141566696E-17, -1.000000000000000000, 0.000000000000000000 ) ) ;
#218 = LINE ( 'NONE', #82, #222 ) ;
#219 = VERTEX_POINT ( 'NONE', #254 ) ;
#220 =( NAMED_UNIT ( * ) SI_UNIT ( $, .STERADIAN. ) SOLID_ANGLE_UNIT ( ) );
#221 = DIRECTION ( 'NONE',  ( -1.000000000000000000, 6.672013369141566696E-17, 0.000000000000000000 ) ) ;
#222 = VECTOR ( 'NONE', #50, 1000.000000000000000 ) ;
#223 = EDGE_CURVE ( 'NONE', #209, #184, #58, .T. ) ;
#224 = DIRECTION ( 'NONE',  ( 1.000000000000000000, 0.000000000000000000, 0.000000000000000000 ) ) ;
#225 = PRODUCT ( 'PS30S2 \X2\041f0440043e04440438043b044c\X0\ \X2\0430043b044e043c0438043d043804350432044b0439\X0\, \X2\043a043204300434044004300442\X0\ 30x30x2 (\X2\0410043d\X0\. \X2\044104350440043504310440043e\X0\)_00', 'PS30S2 \X2\041f0440043e04440438043b044c\X0\ \X2\0430043b044e043c0438043d043804350432044b0439\X0\, \X2\043a043204300434044004300442\X0\ 30x30x2 (\X2\0410043d\X0\. \X2\044104350440043504310440043e\X0\)_00', '', ( #142 ) ) ;
#226 = APPLICATION_PROTOCOL_DEFINITION ( 'draft international standard', 'automotive_design', 1998, #28 ) ;
#227 = CARTESIAN_POINT ( 'NONE',  ( 15.00000000000000000, 15.00000000000000000, 0.000000000000000000 ) ) ;
#228 = ORIENTED_EDGE ( 'NONE', *, *, #293, .T. ) ;
#229 = PLANE ( 'NONE',  #361 ) ;
#230 = EDGE_LOOP ( 'NONE', ( #126, #291, #141, #264 ) ) ;
#231 = DIRECTION ( 'NONE',  ( -0.000000000000000000, -0.000000000000000000, -1.000000000000000000 ) ) ;
#232 = VECTOR ( 'NONE', #43, 1000.000000000000000 ) ;
#233 = LINE ( 'NONE', #352, #185 ) ;
#234 = EDGE_LOOP ( 'NONE', ( #364, #287, #182, #367 ) ) ;
#235 = VECTOR ( 'NONE', #131, 1000.000000000000000 ) ;
#236 = VERTEX_POINT ( 'NONE', #170 ) ;
#237 = PRESENTATION_STYLE_ASSIGNMENT (( #295 ) ) ;
#238 = ADVANCED_FACE ( 'NONE', ( #345, #6 ), #197, .T. ) ;
#239 = DIRECTION ( 'NONE',  ( -1.000000000000000000, -0.000000000000000000, -0.000000000000000000 ) ) ;
#240 = ORIENTED_EDGE ( 'NONE', *, *, #277, .F. ) ;
#241 = EDGE_CURVE ( 'NONE', #171, #341, #112, .T. ) ;
#242 = DIRECTION ( 'NONE',  ( 0.000000000000000000, -0.000000000000000000, -1.000000000000000000 ) ) ;
#243 = PRODUCT_DEFINITION_FORMATION_WITH_SPECIFIED_SOURCE ( 'ANY', '', #225, .NOT_KNOWN. ) ;
#244 = VECTOR ( 'NONE', #357, 1000.000000000000000 ) ;
#245 = ORIENTED_EDGE ( 'NONE', *, *, #186, .T. ) ;
#246 = PRODUCT_DEFINITION_SHAPE ( 'NONE', 'NONE',  #4 ) ;
#247 = DIRECTION ( 'NONE',  ( 0.000000000000000000, 0.000000000000000000, 1.000000000000000000 ) ) ;
#248 = PLANE ( 'NONE',  #215 ) ;
#249 = ADVANCED_FACE ( 'NONE', ( #317 ), #229, .F. ) ;
#250 = CARTESIAN_POINT ( 'NONE',  ( 13.00000000000000711, 12.99999999999999822, 0.000000000000000000 ) ) ;
#251 = EDGE_LOOP ( 'NONE', ( #56, #319, #99, #374 ) ) ;
#252 = LINE ( 'NONE', #29, #322 ) ;
#253 = ORIENTED_EDGE ( 'NONE', *, *, #373, .T. ) ;
#254 = CARTESIAN_POINT ( 'NONE',  ( -15.00000000000000000, -15.00000000000000000, 1000.000000000000000 ) ) ;
#255 = ORIENTED_EDGE ( 'NONE', *, *, #72, .T. ) ;
#256 = APPLICATION_CONTEXT ( 'automotive_design' ) ;
#257 = APPLICATION_PROTOCOL_DEFINITION ( 'draft international standard', 'automotive_design', 1998, #256 ) ;
#258 = CARTESIAN_POINT ( 'NONE',  ( 13.00000000000000533, -13.00000000000000000, 1000.000000000000000 ) ) ;
#259 = ORIENTED_EDGE ( 'NONE', *, *, #335, .T. ) ;
#260 = SHAPE_REPRESENTATION_RELATIONSHIP ( 'NONE' , 'NONE' ,  #146, #41 ) ;
#261 = DIRECTION ( 'NONE',  ( -0.000000000000000000, -1.000000000000000000, -0.000000000000000000 ) ) ;
#262 = LINE ( 'NONE', #173, #108 ) ;
#263 = APPLICATION_CONTEXT ( 'automotive_design' ) ;
#264 = ORIENTED_EDGE ( 'NONE', *, *, #373, .F. ) ;
#265 = EDGE_CURVE ( 'NONE', #184, #76, #343, .T. ) ;
#266 = UNCERTAINTY_MEASURE_WITH_UNIT (LENGTH_MEASURE( 1.000000000000000082E-05 ), #372, 'distance_accuracy_value', 'NONE');
#267 = LINE ( 'NONE', #93, #212 ) ;
#268 = MECHANICAL_DESIGN_GEOMETRIC_PRESENTATION_REPRESENTATION (  '', ( #57 ), #167 ) ;
#269 = DIRECTION ( 'NONE',  ( 1.000000000000000000, 0.000000000000000000, 0.000000000000000000 ) ) ;
#270 = ORIENTED_EDGE ( 'NONE', *, *, #203, .T. ) ;
#271 =( NAMED_UNIT ( * ) PLANE_ANGLE_UNIT ( ) SI_UNIT ( $, .RADIAN. ) );
#272 = EDGE_CURVE ( 'NONE', #59, #213, #233, .T. ) ;
#273 = LINE ( 'NONE', #10, #79 ) ;
#274 = VECTOR ( 'NONE', #231, 1000.000000000000000 ) ;
#275 = ORIENTED_EDGE ( 'NONE', *, *, #338, .T. ) ;
#276 = EDGE_LOOP ( 'NONE', ( #27, #15, #329, #371 ) ) ;
#277 = EDGE_CURVE ( 'NONE', #95, #283, #207, .T. ) ;
#278 = CARTESIAN_POINT ( 'NONE',  ( -13.00000000000000000, 13.00000000000000000, 0.000000000000000000 ) ) ;
#279 = ADVANCED_FACE ( 'NONE', ( #294 ), #354, .F. ) ;
#280 = SURFACE_STYLE_FILL_AREA ( #161 ) ;
#281 = DIRECTION ( 'NONE',  ( 1.000000000000000000, -6.672013369141564231E-17, 0.000000000000000000 ) ) ;
#282 = EDGE_CURVE ( 'NONE', #219, #321, #37, .T. ) ;
#283 = VERTEX_POINT ( 'NONE', #155 ) ;
#284 = LINE ( 'NONE', #290, #42 ) ;
#285 = ORIENTED_EDGE ( 'NONE', *, *, #265, .T. ) ;
#286 = LINE ( 'NONE', #311, #368 ) ;
#287 = ORIENTED_EDGE ( 'NONE', *, *, #103, .F. ) ;
#288 = DIRECTION ( 'NONE',  ( 0.000000000000000000, 0.000000000000000000, 1.000000000000000000 ) ) ;
#289 = DIRECTION ( 'NONE',  ( 1.000000000000000000, 0.000000000000000000, 0.000000000000000000 ) ) ;
#290 = CARTESIAN_POINT ( 'NONE',  ( 15.00000000000000000, -15.00000000000000000, 0.000000000000000000 ) ) ;
#291 = ORIENTED_EDGE ( 'NONE', *, *, #272, .F. ) ;
#292 = LINE ( 'NONE', #110, #206 ) ;
#293 = EDGE_CURVE ( 'NONE', #321, #213, #267, .T. ) ;
#294 = FACE_OUTER_BOUND ( 'NONE', #178, .T. ) ;
#295 = SURFACE_STYLE_USAGE ( .BOTH. , #121 ) ;
#296 = AXIS2_PLACEMENT_3D ( 'NONE', #139, #342, #1 ) ;
#297 = AXIS2_PLACEMENT_3D ( 'NONE', #302, #247, #156 ) ;
#298 = DIRECTION ( 'NONE',  ( 0.000000000000000000, 0.000000000000000000, -1.000000000000000000 ) ) ;
#299 = COLOUR_RGB ( '',0.8666666666666666963, 0.9098039215686274384, 1.000000000000000000 ) ;
#300 = PLANE ( 'NONE',  #216 ) ;
#301 = DIRECTION ( 'NONE',  ( 0.000000000000000000, -1.000000000000000000, 0.000000000000000000 ) ) ;
#302 = CARTESIAN_POINT ( 'NONE',  ( 0.000000000000000000, 0.000000000000000000, 0.000000000000000000 ) ) ;
#303 = CARTESIAN_POINT ( 'NONE',  ( -13.00000000000000000, 13.00000000000000000, 0.000000000000000000 ) ) ;
#304 = SURFACE_SIDE_STYLE ('',( #280 ) ) ;
#305 = PLANE ( 'NONE',  #130 ) ;
#306 = FACE_OUTER_BOUND ( 'NONE', #13, .T. ) ;
#307 = ORIENTED_EDGE ( 'NONE', *, *, #128, .F. ) ;
#308 = PRODUCT_RELATED_PRODUCT_CATEGORY ( 'part', '', ( #318 ) ) ;
#309 = ORIENTED_EDGE ( 'NONE', *, *, #347, .F. ) ;
#310 = APPLICATION_PROTOCOL_DEFINITION ( 'draft international standard', 'automotive_design', 1998, #153 ) ;
#311 = CARTESIAN_POINT ( 'NONE',  ( 15.00000000000000000, 15.00000000000000000, 1000.000000000000000 ) ) ;
#312 = ORIENTED_EDGE ( 'NONE', *, *, #136, .T. ) ;
#313 = PRODUCT_DEFINITION_FORMATION_WITH_SPECIFIED_SOURCE ( 'ANY', '', #318, .NOT_KNOWN. ) ;
#314 = VECTOR ( 'NONE', #96, 1000.000000000000000 ) ;
#315 = LINE ( 'NONE', #323, #274 ) ;
#316 = ORIENTED_EDGE ( 'NONE', *, *, #282, .T. ) ;
#317 = FACE_OUTER_BOUND ( 'NONE', #369, .T. ) ;
#318 = PRODUCT ( '\X2\04210431043e0440043a0430\X0\7', '\X2\04210431043e0440043a0430\X0\7', '', ( #91 ) ) ;
#319 = ORIENTED_EDGE ( 'NONE', *, *, #124, .F. ) ;
#320 = DIRECTION ( 'NONE',  ( -1.000000000000000000, 6.672013369141564231E-17, -0.000000000000000000 ) ) ;
#321 = VERTEX_POINT ( 'NONE', #147 ) ;
#322 = VECTOR ( 'NONE', #149, 1000.000000000000000 ) ;
#323 = CARTESIAN_POINT ( 'NONE',  ( 13.00000000000000711, 12.99999999999999822, 1000.000000000000000 ) ) ;
#324 = ADVANCED_FACE ( 'NONE', ( #9 ), #123, .F. ) ;
#325 = UNCERTAINTY_MEASURE_WITH_UNIT (LENGTH_MEASURE( 1.000000000000000082E-05 ), #191, 'distance_accuracy_value', 'NONE');
#326 =( LENGTH_UNIT ( ) NAMED_UNIT ( * ) SI_UNIT ( .MILLI., .METRE. ) );
#327 = LINE ( 'NONE', #68, #133 ) ;
#328 = ORIENTED_EDGE ( 'NONE', *, *, #25, .T. ) ;
#329 = ORIENTED_EDGE ( 'NONE', *, *, #282, .F. ) ;
#330 = FILL_AREA_STYLE ('',( #97 ) ) ;
#331 = LINE ( 'NONE', #180, #244 ) ;
#332 = MANIFOLD_SOLID_BREP ( '\X2\0411043e0431044b0448043a0430\X0\-\X2\0412044b0442044f043d04430442044c\X0\1', #165 ) ;
#333 = AXIS2_PLACEMENT_3D ( 'NONE', #189, #221, #217 ) ;
#334 = ORIENTED_EDGE ( 'NONE', *, *, #169, .F. ) ;
#335 = EDGE_CURVE ( 'NONE', #76, #84, #331, .T. ) ;
#336 = LINE ( 'NONE', #48, #235 ) ;
#337 = ORIENTED_EDGE ( 'NONE', *, *, #38, .F. ) ;
#338 = EDGE_CURVE ( 'NONE', #209, #283, #152, .T. ) ;
#339 = SURFACE_STYLE_USAGE ( .BOTH. , #304 ) ;
#340 = PLANE ( 'NONE',  #64 ) ;
#341 = VERTEX_POINT ( 'NONE', #183 ) ;
#342 = DIRECTION ( 'NONE',  ( 0.000000000000000000, 0.000000000000000000, 1.000000000000000000 ) ) ;
#343 = LINE ( 'NONE', #145, #36 ) ;
#344 = ADVANCED_FACE ( 'NONE', ( #210 ), #300, .F. ) ;
#345 = FACE_OUTER_BOUND ( 'NONE', #230, .T. ) ;
#346 = ORIENTED_EDGE ( 'NONE', *, *, #223, .T. ) ;
#347 = EDGE_CURVE ( 'NONE', #283, #76, #327, .T. ) ;
#348 = CONTEXT_DEPENDENT_SHAPE_REPRESENTATION ( #358, #159 ) ;
#349 = CARTESIAN_POINT ( 'NONE',  ( 13.00000000000000711, 12.99999999999999822, 1000.000000000000000 ) ) ;
#350 = VECTOR ( 'NONE', #224, 1000.000000000000000 ) ;
#351 = SHAPE_DEFINITION_REPRESENTATION ( #172, #146 ) ;
#352 = CARTESIAN_POINT ( 'NONE',  ( -15.00000000000000000, -15.00000000000000000, 0.000000000000000000 ) ) ;
#353 = ORIENTED_EDGE ( 'NONE', *, *, #169, .T. ) ;
#354 = PLANE ( 'NONE',  #89 ) ;
#355 = COLOUR_RGB ( '',0.8666666666666666963, 0.9098039215686274384, 1.000000000000000000 ) ;
#356 = UNCERTAINTY_MEASURE_WITH_UNIT (LENGTH_MEASURE( 1.000000000000000082E-05 ), #211, 'distance_accuracy_value', 'NONE');
#357 = DIRECTION ( 'NONE',  ( 6.672013369141566696E-17, 1.000000000000000000, 0.000000000000000000 ) ) ;
#358 =( REPRESENTATION_RELATIONSHIP ('NONE','NONE', #16, #146 ) REPRESENTATION_RELATIONSHIP_WITH_TRANSFORMATION ( #5 )SHAPE_REPRESENTATION_RELATIONSHIP( ) );
#359 = CARTESIAN_POINT ( 'NONE',  ( -15.00000000000000000, -15.00000000000000000, 1000.000000000000000 ) ) ;
#360 = DIRECTION ( 'NONE',  ( 0.000000000000000000, 1.000000000000000000, 0.000000000000000000 ) ) ;
#361 = AXIS2_PLACEMENT_3D ( 'NONE', #60, #63, #288 ) ;
#362 = DIRECTION ( 'NONE',  ( -1.000000000000000000, 6.672013369141564231E-17, -0.000000000000000000 ) ) ;
#363 = CARTESIAN_POINT ( 'NONE',  ( 13.00000000000000533, -13.00000000000000000, 0.000000000000000000 ) ) ;
#364 = ORIENTED_EDGE ( 'NONE', *, *, #94, .T. ) ;
#365 = PRODUCT_RELATED_PRODUCT_CATEGORY ( 'part', '', ( #225 ) ) ;
#366 = DIRECTION ( 'NONE',  ( -0.000000000000000000, -0.000000000000000000, -1.000000000000000000 ) ) ;
#367 = ORIENTED_EDGE ( 'NONE', *, *, #38, .T. ) ;
#368 = VECTOR ( 'NONE', #175, 1000.000000000000000 ) ;
#369 = EDGE_LOOP ( 'NONE', ( #69, #334, #188, #228 ) ) ;
#370 = CARTESIAN_POINT ( 'NONE',  ( 15.00000000000000000, 15.00000000000000000, 1000.000000000000000 ) ) ;
#371 = ORIENTED_EDGE ( 'NONE', *, *, #103, .T. ) ;
#372 =( LENGTH_UNIT ( ) NAMED_UNIT ( * ) SI_UNIT ( .MILLI., .METRE. ) );
#373 = EDGE_CURVE ( 'NONE', #205, #236, #273, .T. ) ;
#374 = ORIENTED_EDGE ( 'NONE', *, *, #128, .T. ) ;
#375 = NEXT_ASSEMBLY_USAGE_OCCURRENCE ( 'NAUO1', ' ', ' ', #4, #176, $ ) ;
ENDSEC;
END-ISO-10303-21;
