ISO-10303-21;
HEADER;
FILE_DESCRIPTION (( 'STEP AP214' ),
    '1' );
FILE_NAME ('Ñáîðêà1.STEP',
    '2024-12-09T08:06:20',
    ( '' ),
    ( '' ),
    'SwSTEP 2.0',
    'SolidWorks 2024',
    '' );
FILE_SCHEMA (( 'AUTOMOTIVE_DESIGN' ));
ENDSEC;

DATA;
#1 = DIRECTION ( 'NONE',  ( 0.000000000000000000, 0.000000000000000000, -1.000000000000000000 ) ) ;
#2 = DIRECTION ( 'NONE',  ( -1.000000000000000000, -0.000000000000000000, -0.000000000000000000 ) ) ;
#3 = EDGE_LOOP ( 'NONE', ( #75, #101, #86, #108 ) ) ;
#4 = DIRECTION ( 'NONE',  ( 0.000000000000000000, 0.000000000000000000, -1.000000000000000000 ) ) ;
#5 = DIRECTION ( 'NONE',  ( -0.000000000000000000, -1.000000000000000000, -0.000000000000000000 ) ) ;
#6 = ORIENTED_EDGE ( 'NONE', *, *, #50, .F. ) ;
#7 = LINE ( 'NONE', #115, #203 ) ;
#8 = ORIENTED_EDGE ( 'NONE', *, *, #62, .F. ) ;
#9 = UNCERTAINTY_MEASURE_WITH_UNIT (LENGTH_MEASURE( 1.000000000000000082E-05 ), #27, 'distance_accuracy_value', 'NONE');
#10 =( LENGTH_UNIT ( ) NAMED_UNIT ( * ) SI_UNIT ( .MILLI., .METRE. ) );
#11 = DIRECTION ( 'NONE',  ( 1.000000000000000000, 0.000000000000000000, 0.000000000000000000 ) ) ;
#12 = AXIS2_PLACEMENT_3D ( 'NONE', #36, #93, #137 ) ;
#13 = VERTEX_POINT ( 'NONE', #128 ) ;
#14 = EDGE_CURVE ( 'NONE', #13, #161, #17, .T. ) ;
#15 = CARTESIAN_POINT ( 'NONE',  ( -30.00000000000000000, -5.000000000000000000, 1000.000000000000000 ) ) ;
#16 = MECHANICAL_DESIGN_GEOMETRIC_PRESENTATION_REPRESENTATION (  '', ( #18 ), #165 ) ;
#17 = LINE ( 'NONE', #66, #113 ) ;
#18 = STYLED_ITEM ( 'NONE', ( #43 ), #209 ) ;
#19 = ORIENTED_EDGE ( 'NONE', *, *, #14, .F. ) ;
#20 = LINE ( 'NONE', #197, #79 ) ;
#21 = SHAPE_DEFINITION_REPRESENTATION ( #82, #76 ) ;
#22 = CARTESIAN_POINT ( 'NONE',  ( 30.00000000000000000, -5.000000000000000000, 1000.000000000000000 ) ) ;
#23 = LINE ( 'NONE', #52, #148 ) ;
#24 = ORIENTED_EDGE ( 'NONE', *, *, #50, .T. ) ;
#25 = CARTESIAN_POINT ( 'NONE',  ( 996.7489301358025386, 1006.409766940549389, 496.8423446063967504 ) ) ;
#26 = VECTOR ( 'NONE', #153, 1000.000000000000000 ) ;
#27 =( LENGTH_UNIT ( ) NAMED_UNIT ( * ) SI_UNIT ( .MILLI., .METRE. ) );
#28 = PRODUCT_RELATED_PRODUCT_CATEGORY ( 'part', '', ( #114 ) ) ;
#29 = AXIS2_PLACEMENT_3D ( 'NONE', #64, #211, #191 ) ;
#30 = ORIENTED_EDGE ( 'NONE', *, *, #142, .T. ) ;
#31 = APPLICATION_CONTEXT ( 'automotive_design' ) ;
#32 = CARTESIAN_POINT ( 'NONE',  ( -30.00000000000000000, -5.000000000000000000, 1000.000000000000000 ) ) ;
#33 = DIRECTION ( 'NONE',  ( 1.000000000000000000, 0.000000000000000000, 0.000000000000000000 ) ) ;
#34 = APPLICATION_PROTOCOL_DEFINITION ( 'draft international standard', 'automotive_design', 1998, #125 ) ;
#35 = PLANE ( 'NONE',  #29 ) ;
#36 = CARTESIAN_POINT ( 'NONE',  ( 0.000000000000000000, 0.000000000000000000, 0.000000000000000000 ) ) ;
#37 = LINE ( 'NONE', #123, #189 ) ;
#38 = ORIENTED_EDGE ( 'NONE', *, *, #132, .F. ) ;
#39 = CONTEXT_DEPENDENT_SHAPE_REPRESENTATION ( #190, #171 ) ;
#40 = DIRECTION ( 'NONE',  ( -1.000000000000000000, 0.000000000000000000, -0.000000000000000000 ) ) ;
#41 =( NAMED_UNIT ( * ) PLANE_ANGLE_UNIT ( ) SI_UNIT ( $, .RADIAN. ) );
#42 = VECTOR ( 'NONE', #127, 1000.000000000000000 ) ;
#43 = PRESENTATION_STYLE_ASSIGNMENT (( #94 ) ) ;
#44 = EDGE_LOOP ( 'NONE', ( #188, #141, #90, #222 ) ) ;
#45 = ADVANCED_FACE ( 'NONE', ( #214 ), #49, .F. ) ;
#46 = AXIS2_PLACEMENT_3D ( 'NONE', #74, #4, #216 ) ;
#47 = PLANE ( 'NONE',  #119 ) ;
#48 = DIRECTION ( 'NONE',  ( 1.000000000000000000, 0.000000000000000000, 0.000000000000000000 ) ) ;
#49 = PLANE ( 'NONE',  #46 ) ;
#50 = EDGE_CURVE ( 'NONE', #13, #159, #176, .T. ) ;
#51 = APPLICATION_PROTOCOL_DEFINITION ( 'draft international standard', 'automotive_design', 1998, #102 ) ;
#52 = CARTESIAN_POINT ( 'NONE',  ( -30.00000000000000000, 5.000000000000000000, 0.000000000000000000 ) ) ;
#53 = DIRECTION ( 'NONE',  ( 0.000000000000000000, 0.000000000000000000, 1.000000000000000000 ) ) ;
#54 = DIRECTION ( 'NONE',  ( -1.000000000000000000, -0.000000000000000000, -0.000000000000000000 ) ) ;
#55 = PRODUCT_DEFINITION ( 'UNKNOWN', '', #206, #80 ) ;
#56 = ITEM_DEFINED_TRANSFORMATION ( 'NONE', 'NONE', #98,  #208 ) ;
#57 =( NAMED_UNIT ( * ) PLANE_ANGLE_UNIT ( ) SI_UNIT ( $, .RADIAN. ) );
#58 = APPLICATION_CONTEXT ( 'automotive_design' ) ;
#59 = VECTOR ( 'NONE', #157, 1000.000000000000000 ) ;
#60 = DIRECTION ( 'NONE',  ( 0.000000000000000000, 1.000000000000000000, 0.000000000000000000 ) ) ;
#61 = LINE ( 'NONE', #184, #83 ) ;
#62 = EDGE_CURVE ( 'NONE', #112, #166, #196, .T. ) ;
#63 = ORIENTED_EDGE ( 'NONE', *, *, #150, .F. ) ;
#64 = CARTESIAN_POINT ( 'NONE',  ( -30.00000000000000000, -5.000000000000000000, 1000.000000000000000 ) ) ;
#65 = AXIS2_PLACEMENT_3D ( 'NONE', #103, #84, #104 ) ;
#66 = CARTESIAN_POINT ( 'NONE',  ( -30.00000000000000000, -5.000000000000000000, 1000.000000000000000 ) ) ;
#67 = PRODUCT_RELATED_PRODUCT_CATEGORY ( 'part', '', ( #120 ) ) ;
#68 = CARTESIAN_POINT ( 'NONE',  ( 30.00000000000000000, -5.000000000000000000, 1000.000000000000000 ) ) ;
#69 = ADVANCED_FACE ( 'NONE', ( #135 ), #35, .F. ) ;
#70 = ORIENTED_EDGE ( 'NONE', *, *, #132, .T. ) ;
#71 =( NAMED_UNIT ( * ) SI_UNIT ( $, .STERADIAN. ) SOLID_ANGLE_UNIT ( ) );
#72 = FACE_OUTER_BOUND ( 'NONE', #169, .T. ) ;
#73 = DIRECTION ( 'NONE',  ( 1.000000000000000000, 0.000000000000000000, 0.000000000000000000 ) ) ;
#74 = CARTESIAN_POINT ( 'NONE',  ( 0.000000000000000000, 0.000000000000000000, 1000.000000000000000 ) ) ;
#75 = ORIENTED_EDGE ( 'NONE', *, *, #223, .F. ) ;
#76 = SHAPE_REPRESENTATION ( 'SH80S10X \X2\0410043b044e043c0438043d0438043504320430044f\X0\ \X2\043f043e043b043e04410430\X0\ \X2\04100414\X0\31\X2\0422\X0\ 80\X2\0445\X0\10 (\X2\041104350437\X0\ \X2\043f043e043a0440044b04420438044f\X0\)_60\X2\0445\X0\10', ( #208 ), #200 ) ;
#77 = DIRECTION ( 'NONE',  ( -0.000000000000000000, -0.000000000000000000, -1.000000000000000000 ) ) ;
#78 = EDGE_CURVE ( 'NONE', #159, #99, #89, .T. ) ;
#79 = VECTOR ( 'NONE', #48, 1000.000000000000000 ) ;
#80 = PRODUCT_DEFINITION_CONTEXT ( 'detailed design', #58, 'design' ) ;
#81 = CARTESIAN_POINT ( 'NONE',  ( 30.00000000000000000, -5.000000000000000000, 0.000000000000000000 ) ) ;
#82 = PRODUCT_DEFINITION_SHAPE ( 'NONE', 'NONE',  #55 ) ;
#83 = VECTOR ( 'NONE', #182, 1000.000000000000000 ) ;
#84 = DIRECTION ( 'NONE',  ( 0.000000000000000000, -1.000000000000000000, 0.000000000000000000 ) ) ;
#85 = PRESENTATION_LAYER_ASSIGNMENT (  '', '', ( #18 ) ) ;
#86 = ORIENTED_EDGE ( 'NONE', *, *, #78, .F. ) ;
#87 = FACE_OUTER_BOUND ( 'NONE', #3, .T. ) ;
#88 = EDGE_CURVE ( 'NONE', #92, #159, #23, .T. ) ;
#89 = LINE ( 'NONE', #213, #100 ) ;
#90 = ORIENTED_EDGE ( 'NONE', *, *, #14, .T. ) ;
#91 = PLANE ( 'NONE',  #183 ) ;
#92 = VERTEX_POINT ( 'NONE', #193 ) ;
#93 = DIRECTION ( 'NONE',  ( 0.000000000000000000, 0.000000000000000000, 1.000000000000000000 ) ) ;
#94 = SURFACE_STYLE_USAGE ( .BOTH. , #204 ) ;
#95 =( NAMED_UNIT ( * ) SI_UNIT ( $, .STERADIAN. ) SOLID_ANGLE_UNIT ( ) );
#96 = DIRECTION ( 'NONE',  ( 0.000000000000000000, 0.000000000000000000, 1.000000000000000000 ) ) ;
#97 = ADVANCED_FACE ( 'NONE', ( #172 ), #47, .F. ) ;
#98 = AXIS2_PLACEMENT_3D ( 'NONE', #25, #106, #73 ) ;
#99 = VERTEX_POINT ( 'NONE', #143 ) ;
#100 = VECTOR ( 'NONE', #5, 1000.000000000000000 ) ;
#101 = ORIENTED_EDGE ( 'NONE', *, *, #142, .F. ) ;
#102 = APPLICATION_CONTEXT ( 'automotive_design' ) ;
#103 = CARTESIAN_POINT ( 'NONE',  ( -30.00000000000000000, 5.000000000000000000, 1000.000000000000000 ) ) ;
#104 = DIRECTION ( 'NONE',  ( 0.000000000000000000, -0.000000000000000000, -1.000000000000000000 ) ) ;
#105 = CARTESIAN_POINT ( 'NONE',  ( -30.00000000000000000, -5.000000000000000000, 1000.000000000000000 ) ) ;
#106 = DIRECTION ( 'NONE',  ( 0.000000000000000000, 0.000000000000000000, 1.000000000000000000 ) ) ;
#107 = DIRECTION ( 'NONE',  ( -1.000000000000000000, 0.000000000000000000, 0.000000000000000000 ) ) ;
#108 = ORIENTED_EDGE ( 'NONE', *, *, #88, .F. ) ;
#109 = AXIS2_PLACEMENT_3D ( 'NONE', #179, #53, #215 ) ;
#110 =( LENGTH_UNIT ( ) NAMED_UNIT ( * ) SI_UNIT ( .MILLI., .METRE. ) );
#111 = CARTESIAN_POINT ( 'NONE',  ( -30.00000000000000000, 5.000000000000000000, 0.000000000000000000 ) ) ;
#112 = VERTEX_POINT ( 'NONE', #180 ) ;
#113 = VECTOR ( 'NONE', #199, 1000.000000000000000 ) ;
#114 = PRODUCT ( '\X2\04210431043e0440043a0430\X0\1', '\X2\04210431043e0440043a0430\X0\1', '', ( #194 ) ) ;
#115 = CARTESIAN_POINT ( 'NONE',  ( 30.00000000000000000, 5.000000000000000000, 1000.000000000000000 ) ) ;
#116 =( NAMED_UNIT ( * ) PLANE_ANGLE_UNIT ( ) SI_UNIT ( $, .RADIAN. ) );
#117 = COLOUR_RGB ( '',0.7921568627450980005, 0.8196078431372548767, 0.9333333333333333481 ) ;
#118 = ADVANCED_FACE ( 'NONE', ( #72 ), #140, .F. ) ;
#119 = AXIS2_PLACEMENT_3D ( 'NONE', #105, #33, #124 ) ;
#120 = PRODUCT ( 'SH80S10X \X2\0410043b044e043c0438043d0438043504320430044f\X0\ \X2\043f043e043b043e04410430\X0\ \X2\04100414\X0\31\X2\0422\X0\ 80\X2\0445\X0\10 (\X2\041104350437\X0\ \X2\043f043e043a0440044b04420438044f\X0\)_60\X2\0445\X0\10', 'SH80S10X \X2\0410043b044e043c0438043d0438043504320430044f\X0\ \X2\043f043e043b043e04410430\X0\ \X2\04100414\X0\31\X2\0422\X0\ 80\X2\0445\X0\10 (\X2\041104350437\X0\ \X2\043f043e043a0440044b04420438044f\X0\)_60\X2\0445\X0\10', '', ( #219 ) ) ;
#121 = DIRECTION ( 'NONE',  ( 0.000000000000000000, 0.000000000000000000, 1.000000000000000000 ) ) ;
#122 = PRODUCT_DEFINITION ( 'UNKNOWN', '', #134, #198 ) ;
#123 = CARTESIAN_POINT ( 'NONE',  ( -30.00000000000000000, 5.000000000000000000, 1000.000000000000000 ) ) ;
#124 = DIRECTION ( 'NONE',  ( 0.000000000000000000, 0.000000000000000000, -1.000000000000000000 ) ) ;
#125 = APPLICATION_CONTEXT ( 'automotive_design' ) ;
#126 = UNCERTAINTY_MEASURE_WITH_UNIT (LENGTH_MEASURE( 1.000000000000000082E-05 ), #10, 'distance_accuracy_value', 'NONE');
#127 = DIRECTION ( 'NONE',  ( -0.000000000000000000, -0.000000000000000000, -1.000000000000000000 ) ) ;
#128 = CARTESIAN_POINT ( 'NONE',  ( -30.00000000000000000, 5.000000000000000000, 1000.000000000000000 ) ) ;
#129 = ORIENTED_EDGE ( 'NONE', *, *, #62, .T. ) ;
#130 = CARTESIAN_POINT ( 'NONE',  ( 30.00000000000000000, 5.000000000000000000, 1000.000000000000000 ) ) ;
#131 = CARTESIAN_POINT ( 'NONE',  ( -30.00000000000000000, -5.000000000000000000, 1000.000000000000000 ) ) ;
#132 = EDGE_CURVE ( 'NONE', #161, #99, #218, .T. ) ;
#133 = SHAPE_REPRESENTATION ( '\X2\04210431043e0440043a0430\X0\1', ( #109, #98 ), #173 ) ;
#134 = PRODUCT_DEFINITION_FORMATION_WITH_SPECIFIED_SOURCE ( 'ANY', '', #114, .NOT_KNOWN. ) ;
#135 = FACE_OUTER_BOUND ( 'NONE', #149, .T. ) ;
#136 = CARTESIAN_POINT ( 'NONE',  ( -30.00000000000000000, 5.000000000000000000, 1000.000000000000000 ) ) ;
#137 = DIRECTION ( 'NONE',  ( 1.000000000000000000, 0.000000000000000000, 0.000000000000000000 ) ) ;
#138 = LINE ( 'NONE', #174, #167 ) ;
#139 = EDGE_LOOP ( 'NONE', ( #207, #38, #19, #24 ) ) ;
#140 = PLANE ( 'NONE',  #154 ) ;
#141 = ORIENTED_EDGE ( 'NONE', *, *, #150, .T. ) ;
#142 = EDGE_CURVE ( 'NONE', #99, #166, #20, .T. ) ;
#143 = CARTESIAN_POINT ( 'NONE',  ( -30.00000000000000000, -5.000000000000000000, 0.000000000000000000 ) ) ;
#144 = APPLICATION_PROTOCOL_DEFINITION ( 'draft international standard', 'automotive_design', 1998, #31 ) ;
#145 = DIRECTION ( 'NONE',  ( 1.000000000000000000, 0.000000000000000000, 0.000000000000000000 ) ) ;
#146 = FILL_AREA_STYLE_COLOUR ( '', #117 ) ;
#147 = SHAPE_REPRESENTATION_RELATIONSHIP ( 'NONE' , 'NONE' ,  #76, #162 ) ;
#148 = VECTOR ( 'NONE', #2, 1000.000000000000000 ) ;
#149 = EDGE_LOOP ( 'NONE', ( #30, #8, #168, #70 ) ) ;
#150 = EDGE_CURVE ( 'NONE', #201, #13, #37, .T. ) ;
#151 = PRODUCT_DEFINITION_SHAPE ( 'NONE', 'NONE',  #122 ) ;
#152 = FACE_OUTER_BOUND ( 'NONE', #192, .T. ) ;
#153 = DIRECTION ( 'NONE',  ( -0.000000000000000000, -0.000000000000000000, -1.000000000000000000 ) ) ;
#154 = AXIS2_PLACEMENT_3D ( 'NONE', #68, #107, #121 ) ;
#155 = PLANE ( 'NONE',  #65 ) ;
#156 = ORIENTED_EDGE ( 'NONE', *, *, #205, .T. ) ;
#157 = DIRECTION ( 'NONE',  ( -0.000000000000000000, -0.000000000000000000, -1.000000000000000000 ) ) ;
#158 = ADVANCED_FACE ( 'NONE', ( #87 ), #91, .T. ) ;
#159 = VERTEX_POINT ( 'NONE', #111 ) ;
#160 = CARTESIAN_POINT ( 'NONE',  ( 0.000000000000000000, 0.000000000000000000, 0.000000000000000000 ) ) ;
#161 = VERTEX_POINT ( 'NONE', #15 ) ;
#162 = ADVANCED_BREP_SHAPE_REPRESENTATION ( '', ( #209, #208 ), #200 ) ;
#163 = SURFACE_STYLE_FILL_AREA ( #185 ) ;
#164 =( NAMED_UNIT ( * ) SI_UNIT ( $, .STERADIAN. ) SOLID_ANGLE_UNIT ( ) );
#165 =( GEOMETRIC_REPRESENTATION_CONTEXT ( 3 ) GLOBAL_UNCERTAINTY_ASSIGNED_CONTEXT ( ( #126 ) ) GLOBAL_UNIT_ASSIGNED_CONTEXT ( ( #10, #116, #164 ) ) REPRESENTATION_CONTEXT ( 'NONE', 'WORKASPACE' ) );
#166 = VERTEX_POINT ( 'NONE', #81 ) ;
#167 = VECTOR ( 'NONE', #60, 1000.000000000000000 ) ;
#168 = ORIENTED_EDGE ( 'NONE', *, *, #187, .F. ) ;
#169 = EDGE_LOOP ( 'NONE', ( #181, #178, #217, #129 ) ) ;
#170 = ADVANCED_FACE ( 'NONE', ( #152 ), #155, .F. ) ;
#171 = PRODUCT_DEFINITION_SHAPE ( 'NONE', 'NONE',  #224 ) ;
#172 = FACE_OUTER_BOUND ( 'NONE', #139, .T. ) ;
#173 =( GEOMETRIC_REPRESENTATION_CONTEXT ( 3 ) GLOBAL_UNCERTAINTY_ASSIGNED_CONTEXT ( ( #195 ) ) GLOBAL_UNIT_ASSIGNED_CONTEXT ( ( #110, #41, #71 ) ) REPRESENTATION_CONTEXT ( 'NONE', 'WORKASPACE' ) );
#174 = CARTESIAN_POINT ( 'NONE',  ( 30.00000000000000000, -5.000000000000000000, 1000.000000000000000 ) ) ;
#175 = APPLICATION_PROTOCOL_DEFINITION ( 'draft international standard', 'automotive_design', 1998, #58 ) ;
#176 = LINE ( 'NONE', #136, #59 ) ;
#177 = EDGE_CURVE ( 'NONE', #112, #201, #138, .T. ) ;
#178 = ORIENTED_EDGE ( 'NONE', *, *, #205, .F. ) ;
#179 = CARTESIAN_POINT ( 'NONE',  ( 0.000000000000000000, 0.000000000000000000, 0.000000000000000000 ) ) ;
#180 = CARTESIAN_POINT ( 'NONE',  ( 30.00000000000000000, -5.000000000000000000, 1000.000000000000000 ) ) ;
#181 = ORIENTED_EDGE ( 'NONE', *, *, #223, .T. ) ;
#182 = DIRECTION ( 'NONE',  ( 0.000000000000000000, 1.000000000000000000, 0.000000000000000000 ) ) ;
#183 = AXIS2_PLACEMENT_3D ( 'NONE', #160, #1, #40 ) ;
#184 = CARTESIAN_POINT ( 'NONE',  ( 30.00000000000000000, -5.000000000000000000, 0.000000000000000000 ) ) ;
#185 = FILL_AREA_STYLE ('',( #146 ) ) ;
#186 = CARTESIAN_POINT ( 'NONE',  ( 0.000000000000000000, 0.000000000000000000, 0.000000000000000000 ) ) ;
#187 = EDGE_CURVE ( 'NONE', #161, #112, #220, .T. ) ;
#188 = ORIENTED_EDGE ( 'NONE', *, *, #177, .T. ) ;
#189 = VECTOR ( 'NONE', #54, 1000.000000000000000 ) ;
#190 =( REPRESENTATION_RELATIONSHIP ('NONE','NONE', #133, #76 ) REPRESENTATION_RELATIONSHIP_WITH_TRANSFORMATION ( #56 )SHAPE_REPRESENTATION_RELATIONSHIP( ) );
#191 = DIRECTION ( 'NONE',  ( 0.000000000000000000, -0.000000000000000000, 1.000000000000000000 ) ) ;
#192 = EDGE_LOOP ( 'NONE', ( #212, #6, #63, #156 ) ) ;
#193 = CARTESIAN_POINT ( 'NONE',  ( 30.00000000000000000, 5.000000000000000000, 0.000000000000000000 ) ) ;
#194 = PRODUCT_CONTEXT ( 'NONE', #31, 'mechanical' ) ;
#195 = UNCERTAINTY_MEASURE_WITH_UNIT (LENGTH_MEASURE( 1.000000000000000082E-05 ), #110, 'distance_accuracy_value', 'NONE');
#196 = LINE ( 'NONE', #22, #26 ) ;
#197 = CARTESIAN_POINT ( 'NONE',  ( -30.00000000000000000, -5.000000000000000000, 0.000000000000000000 ) ) ;
#198 = PRODUCT_DEFINITION_CONTEXT ( 'detailed design', #125, 'design' ) ;
#199 = DIRECTION ( 'NONE',  ( -0.000000000000000000, -1.000000000000000000, -0.000000000000000000 ) ) ;
#200 =( GEOMETRIC_REPRESENTATION_CONTEXT ( 3 ) GLOBAL_UNCERTAINTY_ASSIGNED_CONTEXT ( ( #9 ) ) GLOBAL_UNIT_ASSIGNED_CONTEXT ( ( #27, #57, #95 ) ) REPRESENTATION_CONTEXT ( 'NONE', 'WORKASPACE' ) );
#201 = VERTEX_POINT ( 'NONE', #130 ) ;
#202 = SHAPE_DEFINITION_REPRESENTATION ( #151, #133 ) ;
#203 = VECTOR ( 'NONE', #77, 1000.000000000000000 ) ;
#204 = SURFACE_SIDE_STYLE ('',( #163 ) ) ;
#205 = EDGE_CURVE ( 'NONE', #201, #92, #7, .T. ) ;
#206 = PRODUCT_DEFINITION_FORMATION_WITH_SPECIFIED_SOURCE ( 'ANY', '', #120, .NOT_KNOWN. ) ;
#207 = ORIENTED_EDGE ( 'NONE', *, *, #78, .T. ) ;
#208 = AXIS2_PLACEMENT_3D ( 'NONE', #186, #96, #11 ) ;
#209 = MANIFOLD_SOLID_BREP ( '\X2\0411043e0431044b0448043a0430\X0\-\X2\0412044b0442044f043d04430442044c\X0\1', #221 ) ;
#210 = VECTOR ( 'NONE', #145, 1000.000000000000000 ) ;
#211 = DIRECTION ( 'NONE',  ( 0.000000000000000000, 1.000000000000000000, 0.000000000000000000 ) ) ;
#212 = ORIENTED_EDGE ( 'NONE', *, *, #88, .T. ) ;
#213 = CARTESIAN_POINT ( 'NONE',  ( -30.00000000000000000, -5.000000000000000000, 0.000000000000000000 ) ) ;
#214 = FACE_OUTER_BOUND ( 'NONE', #44, .T. ) ;
#215 = DIRECTION ( 'NONE',  ( 1.000000000000000000, 0.000000000000000000, 0.000000000000000000 ) ) ;
#216 = DIRECTION ( 'NONE',  ( -1.000000000000000000, 0.000000000000000000, -0.000000000000000000 ) ) ;
#217 = ORIENTED_EDGE ( 'NONE', *, *, #177, .F. ) ;
#218 = LINE ( 'NONE', #32, #42 ) ;
#219 = PRODUCT_CONTEXT ( 'NONE', #102, 'mechanical' ) ;
#220 = LINE ( 'NONE', #131, #210 ) ;
#221 = CLOSED_SHELL ( 'NONE', ( #118, #170, #97, #69, #45, #158 ) ) ;
#222 = ORIENTED_EDGE ( 'NONE', *, *, #187, .T. ) ;
#223 = EDGE_CURVE ( 'NONE', #166, #92, #61, .T. ) ;
#224 = NEXT_ASSEMBLY_USAGE_OCCURRENCE ( 'NAUO1', ' ', ' ', #122, #55, $ ) ;
ENDSEC;
END-ISO-10303-21;
